  0
SECTION
  2
HEADER
  9
$ACADVER
  1
AC1015
  9
$ACADMAINTVER
 70
     6
  9
$DWGCODEPAGE
  3
ANSI_1254
  9
$INSBASE
 10
0.0
 20
0.0
 30
0.0
  9
$EXTMIN
 10
0.0
 20
0.0
 30
0.0
  9
$EXTMAX
 10
279.4
 20
215.9
 30
0.0
  9
$LIMMIN
 10
0.0
 20
0.0
  9
$LIMMAX
 10
279.4
 20
215.9
  9
$ORTHOMODE
 70
     0
  9
$REGENMODE
 70
     1
  9
$FILLMODE
 70
     1
  9
$QTEXTMODE
 70
     0
  9
$MIRRTEXT
 70
     1
  9
$LTSCALE
 40
1.0
  9
$ATTMODE
 70
     1
  9
$TEXTSIZE
 40
3.5
  9
$TRACEWID
 40
1.0
  9
$TEXTSTYLE
  7
Standard
  9
$CLAYER
  8
0
  9
$CELTYPE
  6
ByLayer
  9
$CECOLOR
 62
   256
  9
$CELTSCALE
 40
1.0
  9
$DISPSILH
 70
     0
  9
$DIMSCALE
 40
1.0
  9
$DIMASZ
 40
3.5
  9
$DIMEXO
 40
1.0
  9
$DIMDLI
 40
3.75
  9
$DIMRND
 40
0.0
  9
$DIMDLE
 40
0.0
  9
$DIMEXE
 40
1.0
  9
$DIMTP
 40
0.0
  9
$DIMTM
 40
0.0
  9
$DIMTXT
 40
3.5
  9
$DIMCEN
 40
2.5
  9
$DIMTSZ
 40
0.0
  9
$DIMTOL
 70
     0
  9
$DIMLIM
 70
     0
  9
$DIMTIH
 70
     1
  9
$DIMTOH
 70
     1
  9
$DIMSE1
 70
     0
  9
$DIMSE2
 70
     0
  9
$DIMTAD
 70
     1
  9
$DIMZIN
 70
     0
  9
$DIMBLK
  1

  9
$DIMASO
 70
     1
  9
$DIMSHO
 70
     1
  9
$DIMPOST
  1

  9
$DIMAPOST
  1

  9
$DIMALT
 70
     0
  9
$DIMALTD
 70
     3
  9
$DIMALTF
 40
0.0393700787
  9
$DIMLFAC
 40
1.0
  9
$DIMTOFL
 70
     1
  9
$DIMTVP
 40
0.0
  9
$DIMTIX
 70
     0
  9
$DIMSOXD
 70
     0
  9
$DIMSAH
 70
     0
  9
$DIMBLK1
  1

  9
$DIMBLK2
  1

  9
$DIMSTYLE
  2
ISO-25
  9
$DIMCLRD
 70
     0
  9
$DIMCLRE
 70
     0
  9
$DIMCLRT
 70
     0
  9
$DIMTFAC
 40
1.0
  9
$DIMGAP
 40
1.524
  9
$DIMJUST
 70
     0
  9
$DIMSD1
 70
     0
  9
$DIMSD2
 70
     0
  9
$DIMTOLJ
 70
     0
  9
$DIMTZIN
 70
     0
  9
$DIMALTZ
 70
     0
  9
$DIMALTTZ
 70
     0
  9
$DIMUPT
 70
     0
  9
$DIMDEC
 70
     2
  9
$DIMTDEC
 70
     2
  9
$DIMALTU
 70
     2
  9
$DIMALTTD
 70
     3
  9
$DIMTXSTY
  7
Standard
  9
$DIMAUNIT
 70
     0
  9
$DIMADEC
 70
     2
  9
$DIMALTRND
 40
0.0
  9
$DIMAZIN
 70
     0
  9
$DIMDSEP
 70
    44
  9
$DIMATFIT
 70
     3
  9
$DIMFRAC
 70
     0
  9
$DIMLDRBLK
  1

  9
$DIMLUNIT
 70
     2
  9
$DIMLWD
 70
    -2
  9
$DIMLWE
 70
    -2
  9
$DIMTMOVE
 70
     0
  9
$LUNITS
 70
     2
  9
$LUPREC
 70
     2
  9
$SKETCHINC
 40
1.0
  9
$FILLETRAD
 40
10.0
  9
$AUNITS
 70
     0
  9
$AUPREC
 70
     2
  9
$MENU
  1
.
  9
$ELEVATION
 40
0.0
  9
$PELEVATION
 40
0.0
  9
$THICKNESS
 40
0.0
  9
$LIMCHECK
 70
     0
  9
$CHAMFERA
 40
0.0
  9
$CHAMFERB
 40
0.0
  9
$CHAMFERC
 40
0.0
  9
$CHAMFERD
 40
0.0
  9
$SKPOLY
 70
     0
  9
$TDCREATE
 40
2459947.373816505
  9
$TDUCREATE
 40
2459947.248816505
  9
$TDUPDATE
 40
2459947.373816759
  9
$TDUUPDATE
 40
2459947.248816759
  9
$TDINDWG
 40
0.0000000116
  9
$TDUSRTIMER
 40
0.0000000116
  9
$USRTIMER
 70
     1
  9
$ANGBASE
 50
0.0
  9
$ANGDIR
 70
     0
  9
$PDMODE
 70
     0
  9
$PDSIZE
 40
-1.0
  9
$PLINEWID
 40
0.0
  9
$SPLFRAME
 70
     0
  9
$SPLINETYPE
 70
     6
  9
$SPLINESEGS
 70
     8
  9
$HANDSEED
  5
171
  9
$SURFTAB1
 70
     6
  9
$SURFTAB2
 70
     6
  9
$SURFTYPE
 70
     6
  9
$SURFU
 70
     6
  9
$SURFV
 70
     6
  9
$UCSBASE
  2

  9
$UCSNAME
  2

  9
$UCSORG
 10
0.0
 20
0.0
 30
0.0
  9
$UCSXDIR
 10
1.0
 20
0.0
 30
0.0
  9
$UCSYDIR
 10
0.0
 20
1.0
 30
0.0
  9
$UCSORTHOREF
  2

  9
$UCSORTHOVIEW
 70
     0
  9
$UCSORGTOP
 10
0.0
 20
0.0
 30
0.0
  9
$UCSORGBOTTOM
 10
0.0
 20
0.0
 30
0.0
  9
$UCSORGLEFT
 10
0.0
 20
0.0
 30
0.0
  9
$UCSORGRIGHT
 10
0.0
 20
0.0
 30
0.0
  9
$UCSORGFRONT
 10
0.0
 20
0.0
 30
0.0
  9
$UCSORGBACK
 10
0.0
 20
0.0
 30
0.0
  9
$PUCSBASE
  2

  9
$PUCSNAME
  2

  9
$PUCSORG
 10
0.0
 20
0.0
 30
0.0
  9
$PUCSXDIR
 10
1.0
 20
0.0
 30
0.0
  9
$PUCSYDIR
 10
0.0
 20
1.0
 30
0.0
  9
$PUCSORTHOREF
  2

  9
$PUCSORTHOVIEW
 70
     0
  9
$PUCSORGTOP
 10
0.0
 20
0.0
 30
0.0
  9
$PUCSORGBOTTOM
 10
0.0
 20
0.0
 30
0.0
  9
$PUCSORGLEFT
 10
0.0
 20
0.0
 30
0.0
  9
$PUCSORGRIGHT
 10
0.0
 20
0.0
 30
0.0
  9
$PUCSORGFRONT
 10
0.0
 20
0.0
 30
0.0
  9
$PUCSORGBACK
 10
0.0
 20
0.0
 30
0.0
  9
$USERI1
 70
     0
  9
$USERI2
 70
     0
  9
$USERI3
 70
     0
  9
$USERI4
 70
     0
  9
$USERI5
 70
     0
  9
$USERR1
 40
0.0
  9
$USERR2
 40
0.0
  9
$USERR3
 40
0.0
  9
$USERR4
 40
0.0
  9
$USERR5
 40
0.0
  9
$WORLDVIEW
 70
     1
  9
$SHADEDGE
 70
     3
  9
$SHADEDIF
 70
    70
  9
$TILEMODE
 70
     1
  9
$MAXACTVP
 70
    64
  9
$PINSBASE
 10
0.0
 20
0.0
 30
0.0
  9
$PLIMCHECK
 70
     0
  9
$PEXTMIN
 10
1.0000000000E+20
 20
1.0000000000E+20
 30
1.0000000000E+20
  9
$PEXTMAX
 10
-1.0000000000E+20
 20
-1.0000000000E+20
 30
-1.0000000000E+20
  9
$PLIMMIN
 10
0.0
 20
0.0
  9
$PLIMMAX
 10
420.0
 20
297.0
  9
$UNITMODE
 70
     0
  9
$VISRETAIN
 70
     1
  9
$PLINEGEN
 70
     0
  9
$PSLTSCALE
 70
     1
  9
$TREEDEPTH
 70
  3020
  9
$CMLSTYLE
  2
Standard
  9
$CMLJUST
 70
     0
  9
$CMLSCALE
 40
20.0
  9
$PROXYGRAPHICS
 70
     1
  9
$MEASUREMENT
 70
     1
  9
$CELWEIGHT
370
    -1
  9
$ENDCAPS
280
     0
  9
$JOINSTYLE
280
     0
  9
$LWDISPLAY
290
     1
  9
$INSUNITS
 70
     4
  9
$HYPERLINKBASE
  1

  9
$STYLESHEET
  1

  9
$XEDIT
290
     1
  9
$CEPSNTYPE
380
     0
  9
$PSTYLEMODE
290
     1
  9
$FINGERPRINTGUID
  2
{ef3ac7fa-eb46-4e3b-964a-b91b00767905}
  9
$VERSIONGUID
  2
{FAEB1C32-E019-11D5-929B-00C0DF256EC4}
  9
$EXTNAMES
290
     1
  9
$PSVPSCALE
 40
0.0
  9
$OLESTARTUP
290
     0
  0
ENDSEC
  0
SECTION
  2
CLASSES
  0
CLASS
  1
ACDBDICTIONARYWDFLT
  2
AcDbDictionaryWithDefault
  3
ObjectDBX Classes
 90
        0
280
     0
281
     0
  0
CLASS
  1
VISUALSTYLE
  2
AcDbVisualStyle
  3
ObjectDBX Classes
 90
     4095
280
     0
281
     0
  0
CLASS
  1
MATERIAL
  2
AcDbMaterial
  3
ObjectDBX Classes
 90
     1153
280
     0
281
     0
  0
CLASS
  1
SCALE
  2
AcDbScale
  3
ObjectDBX Classes
 90
     1153
280
     0
281
     0
  0
CLASS
  1
TABLESTYLE
  2
AcDbTableStyle
  3
ObjectDBX Classes
 90
     4095
280
     0
281
     0
  0
CLASS
  1
MLEADERSTYLE
  2
AcDbMLeaderStyle
  3
ACDB_MLEADERSTYLE_CLASS
 90
     4095
280
     0
281
     0
  0
CLASS
  1
SUN
  2
AcDbSun
  3
SCENEOE
 90
     1153
280
     0
281
     0
  0
CLASS
  1
ACDBPLACEHOLDER
  2
AcDbPlaceHolder
  3
ObjectDBX Classes
 90
        0
280
     0
281
     0
  0
CLASS
  1
LAYOUT
  2
AcDbLayout
  3
ObjectDBX Classes
 90
        0
280
     0
281
     0
  0
ENDSEC
  0
SECTION
  2
TABLES
  0
TABLE
  2
VPORT
  5
8
330
0
100
AcDbSymbolTable
 70
     1
  0
VPORT
  5
29
330
8
100
AcDbSymbolTableRecord
100
AcDbViewportTableRecord
  2
*Active
 70
     0
 10
0.0
 20
0.0
 11
1.0
 21
1.0
 12
139.7
 22
107.95
 13
0.0
 23
0.0
 14
10.0
 24
10.0
 15
10.0
 25
10.0
 16
0.0
 26
0.0
 36
1.0
 17
0.0
 27
0.0
 37
0.0
 40
215.9
 41
1.2941176471
 42
50.0
 43
0.0
 44
0.0
 50
0.0
 51
0.0
 71
     0
 72
  2000
 73
     1
 74
     3
 75
     0
 76
     0
 77
     0
 78
     0
281
     0
 65
     1
110
0.0
120
0.0
130
0.0
111
1.0
121
0.0
131
0.0
112
0.0
122
1.0
132
0.0
 79
     0
146
0.0
  0
ENDTAB
  0
TABLE
  2
LTYPE
  5
5
330
0
100
AcDbSymbolTable
 70
     6
  0
LTYPE
  5
14
330
5
100
AcDbSymbolTableRecord
100
AcDbLinetypeTableRecord
  2
ByBlock
 70
     0
  3

 72
    65
 73
     0
 40
0.0
  0
LTYPE
  5
15
330
5
100
AcDbSymbolTableRecord
100
AcDbLinetypeTableRecord
  2
ByLayer
 70
     0
  3

 72
    65
 73
     0
 40
0.0
  0
LTYPE
  5
16
330
5
100
AcDbSymbolTableRecord
100
AcDbLinetypeTableRecord
  2
Continuous
 70
     0
  3
Solid line
 72
    65
 73
     0
 40
0.0
  0
LTYPE
  5
6E
330
5
100
AcDbSymbolTableRecord
100
AcDbLinetypeTableRecord
  2
HIDDEN
 70
     0
  3
Hidden __ __ __ __ __ __ __ __ __ __ __ __ __ __
 72
    65
 73
     2
 40
1.905
 49
1.27
 74
     0
 49
-0.635
 74
     0
  0
LTYPE
  5
6F
330
5
100
AcDbSymbolTableRecord
100
AcDbLinetypeTableRecord
  2
PHANTOM
 70
     0
  3
Phantom ______  __  __  ______  __  __  ______
 72
    65
 73
     6
 40
12.7
 49
6.35
 74
     0
 49
-1.27
 74
     0
 49
1.27
 74
     0
 49
-1.27
 74
     0
 49
1.27
 74
     0
 49
-1.27
 74
     0
  0
LTYPE
  5
70
330
5
100
AcDbSymbolTableRecord
100
AcDbLinetypeTableRecord
  2
CENTER
 70
     0
  3
Center ____ _ ____ _ ____ _ ____ _ ____ _ ____
 72
    65
 73
     4
 40
10.16
 49
6.35
 74
     0
 49
-1.27
 74
     0
 49
1.27
 74
     0
 49
-1.27
 74
     0
  0
LTYPE
  5
71
330
5
100
AcDbSymbolTableRecord
100
AcDbLinetypeTableRecord
  2
CENTERX2
 70
     0
  3
Center (2x) ________  __  ________  __  _____
 72
    65
 73
     4
 40
20.32
 49
12.7
 74
     0
 49
-2.54
 74
     0
 49
2.54
 74
     0
 49
-2.54
 74
     0
  0
LTYPE
  5
72
330
5
100
AcDbSymbolTableRecord
100
AcDbLinetypeTableRecord
  2
DOT2
 70
     0
  3
Dot (.5x) ........................................
 72
    65
 73
     2
 40
0.635
 49
0.0
 74
     0
 49
-0.635
 74
     0
  0
ENDTAB
  0
TABLE
  2
LAYER
  5
2
330
0
100
AcDbSymbolTable
 70
    17
  0
LAYER
  5
10
330
2
100
AcDbSymbolTableRecord
100
AcDbLayerTableRecord
  2
0
 70
     0
 62
     7
  6
Continuous
370
    -3
390
F
  0
LAYER
  5
73
330
2
100
AcDbSymbolTableRecord
100
AcDbLayerTableRecord
  2
FORMAT
 70
     0
 62
     7
  6
Continuous
370
    -3
390
F
  0
LAYER
  5
74
330
2
100
AcDbSymbolTableRecord
100
AcDbLayerTableRecord
  2
YARDIMCI_GEOMETRI
 70
     0
 62
    -6
  6
Continuous
290
     0
370
    -3
390
F
  0
LAYER
  5
75
330
2
100
AcDbSymbolTableRecord
100
AcDbLayerTableRecord
  2
SAYFA_CERCEVESI
 70
     0
 62
     7
  6
Continuous
370
    25
390
F
  0
LAYER
  5
76
330
2
100
AcDbSymbolTableRecord
100
AcDbLayerTableRecord
  2
ANTET
 70
     0
 62
     7
  6
Continuous
370
    -3
390
F
  0
LAYER
  5
77
330
2
100
AcDbSymbolTableRecord
100
AcDbLayerTableRecord
  2
OLCU
 70
     0
 62
   150
  6
Continuous
370
    -3
390
F
  0
LAYER
  5
78
330
2
100
AcDbSymbolTableRecord
100
AcDbLayerTableRecord
  2
METIN
 70
     0
 62
    96
  6
Continuous
370
    -3
390
F
  0
LAYER
  5
79
330
2
100
AcDbSymbolTableRecord
100
AcDbLayerTableRecord
  2
BALON
 70
     0
 62
     5
  6
Continuous
370
    -3
390
F
  0
LAYER
  5
7A
330
2
100
AcDbSymbolTableRecord
100
AcDbLayerTableRecord
  2
VURGU
 70
     0
 62
     7
  6
Continuous
370
    -3
390
F
  0
LAYER
  5
7B
330
2
100
AcDbSymbolTableRecord
100
AcDbLayerTableRecord
  2
SILIK
 70
     0
 62
     7
  6
Continuous
370
    -3
390
F
  0
LAYER
  5
7C
330
2
100
AcDbSymbolTableRecord
100
AcDbLayerTableRecord
  2
MODEL
 70
     0
 62
     7
  6
Continuous
370
    -3
390
F
  0
LAYER
  5
7D
330
2
100
AcDbSymbolTableRecord
100
AcDbLayerTableRecord
  2
DETAYLANDıRMA
 70
     0
 62
   190
  6
Continuous
370
    -3
390
F
  0
LAYER
  5
7E
330
2
100
AcDbSymbolTableRecord
100
AcDbLayerTableRecord
  2
TOLERANS
 70
     0
 62
   230
  6
Continuous
370
    -3
390
F
  0
LAYER
  5
7F
330
2
100
AcDbSymbolTableRecord
100
AcDbLayerTableRecord
  2
MERKEZ_CIZGILERI
 70
     0
 62
    30
  6
Continuous
370
    -3
390
F
  0
LAYER
  5
80
330
2
100
AcDbSymbolTableRecord
100
AcDbLayerTableRecord
  2
KESIT-DETAY_CIZGILERI
 70
     0
 62
     7
  6
Continuous
370
    -3
390
F
  0
LAYER
  5
81
330
2
100
AcDbSymbolTableRecord
100
AcDbLayerTableRecord
  2
\U+041E\U+0421\U+0415\U+0412\U+042B\U+0415
 70
     0
 62
     7
  6
Continuous
370
    -3
390
F
  0
LAYER
  5
82
330
2
100
AcDbSymbolTableRecord
100
AcDbLayerTableRecord
  2
\U+0412\U+041E\U+0414\U+042F\U+041D\U+042B\U+0415_\U+0417\U+041D\U+0410\U+041A\U+0418
 70
     0
 62
    11
  6
Continuous
370
    -3
390
F
  0
ENDTAB
  0
TABLE
  2
STYLE
  5
3
330
0
100
AcDbSymbolTable
 70
     1
  0
STYLE
  5
11
330
3
100
AcDbSymbolTableRecord
100
AcDbTextStyleTableRecord
  2
Standard
 70
     0
 40
0.0
 41
1.0
 50
0.0
 71
     0
 42
3.5
  3
txt
  4

  0
ENDTAB
  0
TABLE
  2
VIEW
  5
6
330
0
100
AcDbSymbolTable
 70
     0
  0
ENDTAB
  0
TABLE
  2
UCS
  5
7
330
0
100
AcDbSymbolTable
 70
     0
  0
ENDTAB
  0
TABLE
  2
APPID
  5
9
330
0
100
AcDbSymbolTable
 70
     1
  0
APPID
  5
12
330
9
100
AcDbSymbolTableRecord
100
AcDbRegAppTableRecord
  2
ACAD
 70
     0
  0
ENDTAB
  0
TABLE
  2
DIMSTYLE
  5
A
330
0
100
AcDbSymbolTable
 70
     1
100
AcDbDimStyleTable
  0
DIMSTYLE
105
27
330
A
100
AcDbSymbolTableRecord
100
AcDbDimStyleTableRecord
  2
ISO-25
 70
     0
 41
2.5
 42
0.625
 43
3.75
 44
1.25
 73
     0
 74
     0
 77
     1
 78
     8
140
2.5
141
2.5
143
0.0393700787
147
0.625
171
     3
172
     1
178
     0
271
     2
272
     2
274
     3
278
    44
283
     0
284
     8
340
11
  0
ENDTAB
  0
TABLE
  2
BLOCK_RECORD
  5
1
330
0
100
AcDbSymbolTable
 70
     5
  0
BLOCK_RECORD
  5
1F
330
1
100
AcDbSymbolTableRecord
100
AcDbBlockTableRecord
  2
*Model_Space
340
22
  0
BLOCK_RECORD
  5
1B
330
1
100
AcDbSymbolTableRecord
100
AcDbBlockTableRecord
  2
*Paper_Space
340
1E
  0
BLOCK_RECORD
  5
23
330
1
100
AcDbSymbolTableRecord
100
AcDbBlockTableRecord
  2
*Paper_Space0
340
26
  0
BLOCK_RECORD
  5
C6
330
1
100
AcDbSymbolTableRecord
100
AcDbBlockTableRecord
  2
SW_CENTERMARKSYMBOL_0
340
0
102
{BLKREFS
331
D1
102
}
  0
BLOCK_RECORD
  5
D2
330
1
100
AcDbSymbolTableRecord
100
AcDbBlockTableRecord
  2
SW_CENTERMARKSYMBOL_1
340
0
102
{BLKREFS
331
DD
102
}
  0
BLOCK_RECORD
  5
DE
330
1
100
AcDbSymbolTableRecord
100
AcDbBlockTableRecord
  2
SW_CENTERMARKSYMBOL_2
340
0
102
{BLKREFS
331
E9
102
}
  0
BLOCK_RECORD
  5
164
330
1
100
AcDbSymbolTableRecord
100
AcDbBlockTableRecord
  2
SW_CENTERMARKSYMBOL_3
340
0
102
{BLKREFS
331
16F
102
}
  0
ENDTAB
  0
ENDSEC
  0
SECTION
  2
BLOCKS
  0
BLOCK
  5
20
330
1F
100
AcDbEntity
  8
0
100
AcDbBlockBegin
  2
*Model_Space
 70
     0
 10
0.0
 20
0.0
 30
0.0
  3
*Model_Space
  1

  0
ENDBLK
  5
21
330
1F
100
AcDbEntity
  8
0
100
AcDbBlockEnd
  0
BLOCK
  5
1C
330
1B
100
AcDbEntity
 67
     1
  8
0
100
AcDbBlockBegin
  2
*Paper_Space
 70
     0
 10
0.0
 20
0.0
 30
0.0
  3
*Paper_Space
  1

  0
ENDBLK
  5
1D
330
1B
100
AcDbEntity
 67
     1
  8
0
100
AcDbBlockEnd
  0
BLOCK
  5
24
330
23
100
AcDbEntity
  8
0
100
AcDbBlockBegin
  2
*Paper_Space0
 70
     0
 10
0.0
 20
0.0
 30
0.0
  3
*Paper_Space0
  1

  0
ENDBLK
  5
25
330
23
100
AcDbEntity
  8
0
100
AcDbBlockEnd
  0
BLOCK
  5
C7
330
C6
100
AcDbEntity
  8
0
100
AcDbBlockBegin
  2
SW_CENTERMARKSYMBOL_0
 70
     0
 10
0.0
 20
0.0
 30
0.0
  3
SW_CENTERMARKSYMBOL_0
  1

  0
LINE
  5
C9
330
C6
100
AcDbEntity
  8
FORMAT
 62
     0
100
AcDbLine
 10
0.0
 20
0.0
 30
0.0
 11
0.0
 21
2.5
 31
0.0
  0
LINE
  5
CA
330
C6
100
AcDbEntity
  8
FORMAT
 62
     0
100
AcDbLine
 10
0.0
 20
0.0
 30
0.0
 11
-2.5
 21
0.0
 31
0.0
  0
LINE
  5
CB
330
C6
100
AcDbEntity
  8
FORMAT
 62
     0
100
AcDbLine
 10
0.0
 20
0.0
 30
0.0
 11
0.0
 21
-2.5
 31
0.0
  0
LINE
  5
CC
330
C6
100
AcDbEntity
  8
FORMAT
 62
     0
100
AcDbLine
 10
0.0
 20
0.0
 30
0.0
 11
2.5
 21
0.0
 31
0.0
  0
LINE
  5
CD
330
C6
100
AcDbEntity
  8
FORMAT
 62
     0
100
AcDbLine
 10
0.0
 20
5.0
 30
0.0
 11
0.0
 21
21.5
 31
0.0
  0
LINE
  5
CE
330
C6
100
AcDbEntity
  8
FORMAT
 62
     0
100
AcDbLine
 10
-5.0
 20
0.0
 30
0.0
 11
-21.5
 21
0.0
 31
0.0
  0
LINE
  5
CF
330
C6
100
AcDbEntity
  8
FORMAT
 62
     0
100
AcDbLine
 10
0.0
 20
-5.0
 30
0.0
 11
0.0
 21
-21.5
 31
0.0
  0
LINE
  5
D0
330
C6
100
AcDbEntity
  8
FORMAT
 62
     0
100
AcDbLine
 10
5.0
 20
0.0
 30
0.0
 11
21.5
 21
0.0
 31
0.0
  0
ENDBLK
  5
C8
330
C6
100
AcDbEntity
  8
0
100
AcDbBlockEnd
  0
BLOCK
  5
D3
330
D2
100
AcDbEntity
  8
0
100
AcDbBlockBegin
  2
SW_CENTERMARKSYMBOL_1
 70
     0
 10
0.0
 20
0.0
 30
0.0
  3
SW_CENTERMARKSYMBOL_1
  1

  0
LINE
  5
D5
330
D2
100
AcDbEntity
  8
FORMAT
 62
     0
100
AcDbLine
 10
0.0
 20
0.0
 30
0.0
 11
0.0
 21
2.5
 31
0.0
  0
LINE
  5
D6
330
D2
100
AcDbEntity
  8
FORMAT
 62
     0
100
AcDbLine
 10
0.0
 20
0.0
 30
0.0
 11
-2.5
 21
0.0
 31
0.0
  0
LINE
  5
D7
330
D2
100
AcDbEntity
  8
FORMAT
 62
     0
100
AcDbLine
 10
0.0
 20
0.0
 30
0.0
 11
0.0
 21
-2.5
 31
0.0
  0
LINE
  5
D8
330
D2
100
AcDbEntity
  8
FORMAT
 62
     0
100
AcDbLine
 10
0.0
 20
0.0
 30
0.0
 11
2.5
 21
0.0
 31
0.0
  0
LINE
  5
D9
330
D2
100
AcDbEntity
  8
FORMAT
 62
     0
100
AcDbLine
 10
0.0
 20
5.0
 30
0.0
 11
0.0
 21
9.5
 31
0.0
  0
LINE
  5
DA
330
D2
100
AcDbEntity
  8
FORMAT
 62
     0
100
AcDbLine
 10
-5.0
 20
0.0
 30
0.0
 11
-9.5
 21
0.0
 31
0.0
  0
LINE
  5
DB
330
D2
100
AcDbEntity
  8
FORMAT
 62
     0
100
AcDbLine
 10
0.0
 20
-5.0
 30
0.0
 11
0.0
 21
-9.5
 31
0.0
  0
LINE
  5
DC
330
D2
100
AcDbEntity
  8
FORMAT
 62
     0
100
AcDbLine
 10
5.0
 20
0.0
 30
0.0
 11
9.5
 21
0.0
 31
0.0
  0
ENDBLK
  5
D4
330
D2
100
AcDbEntity
  8
0
100
AcDbBlockEnd
  0
BLOCK
  5
DF
330
DE
100
AcDbEntity
  8
0
100
AcDbBlockBegin
  2
SW_CENTERMARKSYMBOL_2
 70
     0
 10
0.0
 20
0.0
 30
0.0
  3
SW_CENTERMARKSYMBOL_2
  1

  0
LINE
  5
E1
330
DE
100
AcDbEntity
  8
FORMAT
 62
     0
100
AcDbLine
 10
0.0
 20
0.0
 30
0.0
 11
0.0
 21
2.5
 31
0.0
  0
LINE
  5
E2
330
DE
100
AcDbEntity
  8
FORMAT
 62
     0
100
AcDbLine
 10
0.0
 20
0.0
 30
0.0
 11
-2.5
 21
0.0
 31
0.0
  0
LINE
  5
E3
330
DE
100
AcDbEntity
  8
FORMAT
 62
     0
100
AcDbLine
 10
0.0
 20
0.0
 30
0.0
 11
0.0
 21
-2.5
 31
0.0
  0
LINE
  5
E4
330
DE
100
AcDbEntity
  8
FORMAT
 62
     0
100
AcDbLine
 10
0.0
 20
0.0
 30
0.0
 11
2.5
 21
0.0
 31
0.0
  0
LINE
  5
E5
330
DE
100
AcDbEntity
  8
FORMAT
 62
     0
100
AcDbLine
 10
0.0
 20
5.0
 30
0.0
 11
0.0
 21
9.5
 31
0.0
  0
LINE
  5
E6
330
DE
100
AcDbEntity
  8
FORMAT
 62
     0
100
AcDbLine
 10
-5.0
 20
0.0
 30
0.0
 11
-9.5
 21
0.0
 31
0.0
  0
LINE
  5
E7
330
DE
100
AcDbEntity
  8
FORMAT
 62
     0
100
AcDbLine
 10
0.0
 20
-5.0
 30
0.0
 11
0.0
 21
-9.5
 31
0.0
  0
LINE
  5
E8
330
DE
100
AcDbEntity
  8
FORMAT
 62
     0
100
AcDbLine
 10
5.0
 20
0.0
 30
0.0
 11
9.5
 21
0.0
 31
0.0
  0
ENDBLK
  5
E0
330
DE
100
AcDbEntity
  8
0
100
AcDbBlockEnd
  0
BLOCK
  5
165
330
164
100
AcDbEntity
  8
0
100
AcDbBlockBegin
  2
SW_CENTERMARKSYMBOL_3
 70
     0
 10
0.0
 20
0.0
 30
0.0
  3
SW_CENTERMARKSYMBOL_3
  1

  0
LINE
  5
167
330
164
100
AcDbEntity
  8
FORMAT
 62
     0
100
AcDbLine
 10
0.0
 20
0.0
 30
0.0
 11
0.0
 21
2.5
 31
0.0
  0
LINE
  5
168
330
164
100
AcDbEntity
  8
FORMAT
 62
     0
100
AcDbLine
 10
0.0
 20
0.0
 30
0.0
 11
-2.5
 21
0.0
 31
0.0
  0
LINE
  5
169
330
164
100
AcDbEntity
  8
FORMAT
 62
     0
100
AcDbLine
 10
0.0
 20
0.0
 30
0.0
 11
0.0
 21
-2.5
 31
0.0
  0
LINE
  5
16A
330
164
100
AcDbEntity
  8
FORMAT
 62
     0
100
AcDbLine
 10
0.0
 20
0.0
 30
0.0
 11
2.5
 21
0.0
 31
0.0
  0
LINE
  5
16B
330
164
100
AcDbEntity
  8
FORMAT
 62
     0
100
AcDbLine
 10
0.0
 20
5.0
 30
0.0
 11
0.0
 21
12.5
 31
0.0
  0
LINE
  5
16C
330
164
100
AcDbEntity
  8
FORMAT
 62
     0
100
AcDbLine
 10
-5.0
 20
0.0
 30
0.0
 11
-12.5
 21
0.0
 31
0.0
  0
LINE
  5
16D
330
164
100
AcDbEntity
  8
FORMAT
 62
     0
100
AcDbLine
 10
0.0
 20
-5.0
 30
0.0
 11
0.0
 21
-12.5
 31
0.0
  0
LINE
  5
16E
330
164
100
AcDbEntity
  8
FORMAT
 62
     0
100
AcDbLine
 10
5.0
 20
0.0
 30
0.0
 11
12.5
 21
0.0
 31
0.0
  0
ENDBLK
  5
166
330
164
100
AcDbEntity
  8
0
100
AcDbBlockEnd
  0
ENDSEC
  0
SECTION
  2
ENTITIES
  0
LINE
  5
83
330
1F
100
AcDbEntity
  8
0
  6
Continuous
 62
     7
370
    25
100
AcDbLine
 10
166.9123260526
 20
27.3096755577
 30
0.0
 11
195.4123260526
 21
27.3096755577
 31
0.0
  0
LINE
  5
84
330
1F
100
AcDbEntity
  8
0
  6
Continuous
 62
     7
370
    25
100
AcDbLine
 10
78.4123260526
 20
27.3096755577
 30
0.0
 11
106.9123260526
 21
27.3096755577
 31
0.0
  0
LINE
  5
85
330
1F
100
AcDbEntity
  8
0
  6
Continuous
 62
     7
370
    25
100
AcDbLine
 10
78.9368740015
 20
81.3096755577
 30
0.0
 11
78.4123260526
 21
81.3096755577
 31
0.0
  0
LINE
  5
86
330
1F
100
AcDbEntity
  8
0
  6
Continuous
 62
     7
370
    25
100
AcDbLine
 10
117.9552682448
 20
81.3096755577
 30
0.0
 11
92.8947456162
 21
81.3096755577
 31
0.0
  0
LINE
  5
87
330
1F
100
AcDbEntity
  8
0
  6
Continuous
 62
     7
370
    25
100
AcDbLine
 10
180.9368740015
 20
81.3096755577
 30
0.0
 11
155.8531633389
 21
81.3096755577
 31
0.0
  0
LINE
  5
88
330
1F
100
AcDbEntity
  8
0
  6
Continuous
 62
     7
370
    25
100
AcDbLine
 10
195.4123260526
 20
81.3096755577
 30
0.0
 11
194.8947456162
 21
81.3096755577
 31
0.0
  0
LINE
  5
89
330
1F
100
AcDbEntity
  8
0
  6
Continuous
 62
     7
370
    25
100
AcDbLine
 10
155.9123260526
 20
81.2680753612
 30
0.0
 11
155.9123260526
 21
149.3096755577
 31
0.0
  0
LINE
  5
8A
330
1F
100
AcDbEntity
  8
0
  6
Continuous
 62
     7
370
    25
100
AcDbLine
 10
117.9123260526
 20
149.3096755577
 30
0.0
 11
117.9123260526
 21
81.2794872182
 31
0.0
  0
LINE
  5
8B
330
1F
100
AcDbEntity
  8
0
  6
Continuous
 62
     7
370
    25
100
AcDbLine
 10
155.9123260526
 20
149.3096755577
 30
0.0
 11
152.9123260526
 21
152.3096755577
 31
0.0
  0
LINE
  5
8C
330
1F
100
AcDbEntity
  8
0
  6
Continuous
 62
     7
370
    25
100
AcDbLine
 10
120.9123260526
 20
152.3096755577
 30
0.0
 11
117.9123260526
 21
149.3096755577
 31
0.0
  0
LINE
  5
8D
330
1F
100
AcDbEntity
  8
0
  6
Continuous
 62
     7
370
    25
100
AcDbLine
 10
152.9123260526
 20
152.3096755577
 30
0.0
 11
152.9123260526
 21
189.3096755577
 31
0.0
  0
LINE
  5
8E
330
1F
100
AcDbEntity
  8
0
  6
Continuous
 62
     7
370
    25
100
AcDbLine
 10
120.9123260526
 20
189.3096755577
 30
0.0
 11
120.9123260526
 21
152.3096755577
 31
0.0
  0
LINE
  5
8F
330
1F
100
AcDbEntity
  8
0
  6
Continuous
 62
     7
370
    25
100
AcDbLine
 10
194.9123260526
 20
81.3051363646
 30
0.0
 11
194.9123260526
 21
96.3096755577
 31
0.0
  0
LINE
  5
90
330
1F
100
AcDbEntity
  8
0
  6
Continuous
 62
     7
370
    25
100
AcDbLine
 10
180.9123260526
 20
96.3096755577
 30
0.0
 11
180.9123260526
 21
81.3033243368
 31
0.0
  0
LINE
  5
91
330
1F
100
AcDbEntity
  8
0
  6
Continuous
 62
     7
370
    25
100
AcDbLine
 10
92.9123260526
 20
81.3051363646
 30
0.0
 11
92.9123260526
 21
96.3096755577
 31
0.0
  0
LINE
  5
92
330
1F
100
AcDbEntity
  8
0
  6
Continuous
 62
     7
370
    25
100
AcDbLine
 10
78.9123260526
 20
96.3096755577
 30
0.0
 11
78.9123260526
 21
81.3033243368
 31
0.0
  0
LINE
  5
93
330
1F
100
AcDbEntity
  8
0
  6
Continuous
 62
     7
370
    25
100
AcDbLine
 10
152.4123260526
 20
189.3096755577
 30
0.0
 11
152.4123260526
 21
197.3096755577
 31
0.0
  0
LINE
  5
94
330
1F
100
AcDbEntity
  8
0
  6
Continuous
 62
     7
370
    25
100
AcDbLine
 10
121.4123260526
 20
197.3096755577
 30
0.0
 11
121.4123260526
 21
189.3096755577
 31
0.0
  0
LINE
  5
95
330
1F
100
AcDbEntity
  8
0
  6
Continuous
 62
     7
370
    25
100
AcDbLine
 10
195.4123260526
 20
52.3096755577
 30
0.0
 11
195.4123260526
 21
45.3096755577
 31
0.0
  0
LINE
  5
96
330
1F
100
AcDbEntity
  8
0
  6
Continuous
 62
     7
370
    25
100
AcDbLine
 10
195.4123260526
 20
45.3096755577
 30
0.0
 11
78.4123260526
 21
45.3096755577
 31
0.0
  0
LINE
  5
97
330
1F
100
AcDbEntity
  8
0
  6
Continuous
 62
     7
370
    25
100
AcDbLine
 10
78.4123260526
 20
52.3096755577
 30
0.0
 11
78.4123260526
 21
45.3096755577
 31
0.0
  0
LINE
  5
98
330
1F
100
AcDbEntity
  8
0
  6
Continuous
 62
     7
370
    25
100
AcDbLine
 10
195.4123260526
 20
52.3096755577
 30
0.0
 11
78.4123260526
 21
52.3096755577
 31
0.0
  0
LINE
  5
99
330
1F
100
AcDbEntity
  8
0
  6
Continuous
 62
     7
370
    25
100
AcDbLine
 10
195.4123260526
 20
63.3096755577
 30
0.0
 11
195.4123260526
 21
56.3096755577
 31
0.0
  0
LINE
  5
9A
330
1F
100
AcDbEntity
  8
0
  6
Continuous
 62
     7
370
    25
100
AcDbLine
 10
195.4123260526
 20
56.3096755577
 30
0.0
 11
78.4123260526
 21
56.3096755577
 31
0.0
  0
LINE
  5
9B
330
1F
100
AcDbEntity
  8
0
  6
Continuous
 62
     7
370
    25
100
AcDbLine
 10
78.4123260526
 20
63.3096755577
 30
0.0
 11
78.4123260526
 21
56.3096755577
 31
0.0
  0
LINE
  5
9C
330
1F
100
AcDbEntity
  8
0
  6
Continuous
 62
     7
370
    25
100
AcDbLine
 10
195.4123260526
 20
63.3096755577
 30
0.0
 11
78.4123260526
 21
63.3096755577
 31
0.0
  0
SPLINE
  5
9D
330
1F
100
AcDbEntity
  8
0
  6
Continuous
 62
     7
370
    25
100
AcDbSpline
210
0.0
220
0.0
230
1.0
 70
     8
 71
     3
 72
    27
 73
    23
 74
     0
 42
0.00000001
 43
0.00000001
 40
0.0
 40
0.0
 40
0.0
 40
0.0
 40
0.0316993369375115
 40
0.0828414890672674
 40
0.1354421134046145
 40
0.1871063414210103
 40
0.2401870949624487
 40
0.2933273046697487
 40
0.347988753510755
 40
0.4013660446026009
 40
0.4563791318150109
 40
0.5082502102925
 40
0.561682617109227
 40
0.6126810215126139
 40
0.6651018897110961
 40
0.7171854392605644
 40
0.7707008523099127
 40
0.8241514432878649
 40
0.87917184961318
 40
0.9321781212326397
 40
0.986812922794443
 40
1.0
 40
1.0
 40
1.0
 40
1.0
 10
180.9368740014829
 20
81.30332301295482
 30
0.0
 10
180.9339715728932
 20
81.30406859722088
 30
0.0
 10
180.926386508677
 20
81.30601707049486
 30
0.0
 10
181.1279962667104
 20
81.25405482894772
 30
0.0
 10
181.5072140897086
 20
81.16032001218824
 30
0.0
 10
182.0706531807981
 20
81.03037550249708
 30
0.0
 10
182.7900859655322
 20
80.88096681428512
 30
0.0
 10
183.6657282103394
 20
80.7245412321572
 30
0.0
 10
184.6647333838486
 20
80.58095460409179
 30
0.0
 10
185.7716058187543
 20
80.46596204258988
 30
0.0
 10
186.924737675549
 20
80.39637421444742
 30
0.0
 10
188.1071980916949
 20
80.3784858936025
 30
0.0
 10
189.2549505484427
 20
80.41282098682935
 30
0.0
 10
190.3671346759995
 20
80.49453544252981
 30
0.0
 10
191.4021723648086
 20
80.61276828366064
 30
0.0
 10
192.3570118114912
 20
80.75759991664101
 30
0.0
 10
193.1962642995175
 20
80.91285047846296
 30
0.0
 10
193.9016111438712
 20
81.0631176013197
 30
0.0
 10
194.439493035493
 20
81.18990046263319
 30
0.0
 10
194.778690249895
 20
81.2749686707724
 30
0.0
 10
194.9269025179274
 20
81.3134440336786
 30
0.0
 10
194.8999802910699
 20
81.30648314810045
 30
0.0
 10
194.8947456162044
 20
81.30512969494926
 30
0.0
  0
SPLINE
  5
9E
330
1F
100
AcDbEntity
  8
0
  6
Continuous
 62
     7
370
    25
100
AcDbSpline
210
0.0
220
0.0
230
1.0
 70
     8
 71
     3
 72
    29
 73
    25
 74
     0
 42
0.00000001
 43
0.00000001
 40
0.0
 40
0.0
 40
0.0
 40
0.0
 40
0.0278174400353593
 40
0.0721636572183989
 40
0.1143295963057067
 40
0.1574951659976562
 40
0.2044787542793556
 40
0.2524507264420353
 40
0.3077923211788537
 40
0.3645609795225928
 40
0.4071402454384817
 40
0.4507739652750299
 40
0.4934344891698211
 40
0.5377905276557613
 40
0.5746320351144075
 40
0.6123158793612193
 40
0.6665418778915311
 40
0.7223107272552297
 40
0.7776709775445713
 40
0.8345142791659347
 40
0.8810766292468347
 40
0.9289027803347109
 40
0.9755168018309058
 40
0.9999999999999999
 40
0.9999999999999999
 40
0.9999999999999999
 40
0.9999999999999999
 10
117.9552682448019
 20
81.27948073315359
 30
0.0
 10
117.9536095793962
 20
81.28063238212569
 30
0.0
 10
117.949306690215
 20
81.28361997557613
 30
0.0
 10
118.3749414133244
 20
80.98489558487972
 30
0.0
 10
119.1520809929237
 20
80.44922656702927
 30
0.0
 10
120.279003184419
 20
79.69377665050558
 30
0.0
 10
121.7603295832042
 20
78.7435343385821
 30
0.0
 10
123.6823769854312
 20
77.59125526318114
 30
0.0
 10
126.049775237681
 20
76.31510681186205
 30
0.0
 10
128.6491811349825
 20
75.14863354747183
 30
0.0
 10
131.2895310560537
 20
74.25302601625252
 30
0.0
 10
133.8376894243952
 20
73.67983005043281
 30
0.0
 10
136.5348367819192
 20
73.43202239888896
 30
0.0
 10
139.1091588684901
 20
73.56506415147382
 30
0.0
 10
141.4996123561042
 20
73.9952223468526
 30
0.0
 10
143.9604790142329
 20
74.69831826528034
 30
0.0
 10
146.5668675535497
 20
75.73868723117211
 30
0.0
 10
149.1652617567887
 20
77.041406828195
 30
0.0
 10
151.4593457146118
 20
78.36553485266487
 30
0.0
 10
153.2582905001831
 20
79.50372230670891
 30
0.0
 10
154.598877343092
 20
80.39829257777674
 30
0.0
 10
155.4545994895384
 20
80.98810606140879
 30
0.0
 10
155.8967356394832
 20
81.29868207132846
 30
0.0
 10
155.8643245086599
 20
81.27591533808143
 30
0.0
 10
155.8531633388903
 20
81.26807533471175
 30
0.0
  0
SPLINE
  5
9F
330
1F
100
AcDbEntity
  8
0
  6
Continuous
 62
     7
370
    25
100
AcDbSpline
210
0.0
220
0.0
230
1.0
 70
     8
 71
     3
 72
    27
 73
    23
 74
     0
 42
0.00000001
 43
0.00000001
 40
0.0
 40
0.0
 40
0.0
 40
0.0
 40
0.0316993369375115
 40
0.0828414890672674
 40
0.1354421134046145
 40
0.1871063414210103
 40
0.2401870949624487
 40
0.2933273046697487
 40
0.347988753510755
 40
0.4013660446026009
 40
0.4563791318150109
 40
0.5082502102925
 40
0.561682617109227
 40
0.6126810215126139
 40
0.6651018897110961
 40
0.7171854392605644
 40
0.7707008523099127
 40
0.8241514432878649
 40
0.87917184961318
 40
0.9321781212326397
 40
0.986812922794443
 40
1.0
 40
1.0
 40
1.0
 40
1.0
 10
78.93687400148292
 20
81.30332301295482
 30
0.0
 10
78.93397157289321
 20
81.30406859722088
 30
0.0
 10
78.92638650867697
 20
81.30601707049486
 30
0.0
 10
79.12799626671033
 20
81.2540548289477
 30
0.0
 10
79.50721408970858
 20
81.16032001218824
 30
0.0
 10
80.07065318079803
 20
81.0303755024971
 30
0.0
 10
80.79008596553216
 20
80.88096681428512
 30
0.0
 10
81.66572821033941
 20
80.7245412321572
 30
0.0
 10
82.66473338384858
 20
80.58095460409179
 30
0.0
 10
83.77160581875431
 20
80.46596204258988
 30
0.0
 10
84.92473767554893
 20
80.39637421444742
 30
0.0
 10
86.1071980916949
 20
80.3784858936025
 30
0.0
 10
87.25495054844268
 20
80.41282098682935
 30
0.0
 10
88.36713467599945
 20
80.49453544252981
 30
0.0
 10
89.40217236480852
 20
80.61276828366064
 30
0.0
 10
90.35701181149122
 20
80.75759991664101
 30
0.0
 10
91.19626429951752
 20
80.91285047846296
 30
0.0
 10
91.90161114387124
 20
81.0631176013197
 30
0.0
 10
92.43949303549302
 20
81.18990046263319
 30
0.0
 10
92.77869024989496
 20
81.2749686707724
 30
0.0
 10
92.92690251792745
 20
81.3134440336786
 30
0.0
 10
92.89998029106991
 20
81.30648314810045
 30
0.0
 10
92.89474561620437
 20
81.30512969494926
 30
0.0
  0
LINE
  5
A0
330
1F
100
AcDbEntity
  8
0
  6
Continuous
 62
     7
370
    25
100
AcDbLine
 10
106.9123260526
 20
44.3096755577
 30
0.0
 11
166.9123260526
 21
44.3096755577
 31
0.0
  0
LINE
  5
A1
330
1F
100
AcDbEntity
  8
0
  6
Continuous
 62
     7
370
    25
100
AcDbLine
 10
106.9123260526
 20
27.3096755577
 30
0.0
 11
106.9123260526
 21
44.3096755577
 31
0.0
  0
LINE
  5
A2
330
1F
100
AcDbEntity
  8
0
  6
Continuous
 62
     7
370
    25
100
AcDbLine
 10
166.9123260526
 20
44.3096755577
 30
0.0
 11
166.9123260526
 21
27.3096755577
 31
0.0
  0
LINE
  5
A3
330
1F
100
AcDbEntity
  8
0
  6
Continuous
 62
     7
370
    25
100
AcDbLine
 10
78.4123260526
 20
45.3096755577
 30
0.0
 11
78.4123260526
 21
27.3096755577
 31
0.0
  0
LINE
  5
A4
330
1F
100
AcDbEntity
  8
0
  6
Continuous
 62
     7
370
    25
100
AcDbLine
 10
78.4123260526
 20
81.3096755577
 30
0.0
 11
78.4123260526
 21
63.3096755577
 31
0.0
  0
LINE
  5
A5
330
1F
100
AcDbEntity
  8
0
  6
Continuous
 62
     7
370
    25
100
AcDbLine
 10
195.4123260526
 20
45.3096755577
 30
0.0
 11
195.4123260526
 21
27.3096755577
 31
0.0
  0
LINE
  5
A6
330
1F
100
AcDbEntity
  8
0
  6
Continuous
 62
     7
370
    25
100
AcDbLine
 10
195.4123260526
 20
81.3096755577
 30
0.0
 11
195.4123260526
 21
63.3096755577
 31
0.0
  0
LINE
  5
A7
330
1F
100
AcDbEntity
  8
0
  6
Continuous
 62
     7
370
    25
100
AcDbLine
 10
78.4123260526
 20
56.3096755577
 30
0.0
 11
78.4123260526
 21
52.3096755577
 31
0.0
  0
LINE
  5
A8
330
1F
100
AcDbEntity
  8
0
  6
Continuous
 62
     7
370
    25
100
AcDbLine
 10
195.4123260526
 20
56.3096755577
 30
0.0
 11
195.4123260526
 21
52.3096755577
 31
0.0
  0
LINE
  5
A9
330
1F
100
AcDbEntity
  8
0
  6
Continuous
 62
     7
370
    25
100
AcDbLine
 10
155.9123260526
 20
149.3096755577
 30
0.0
 11
117.9123260526
 21
149.3096755577
 31
0.0
  0
LINE
  5
AA
330
1F
100
AcDbEntity
  8
0
  6
Continuous
 62
     7
370
    25
100
AcDbLine
 10
152.9123260526
 20
152.3096755577
 30
0.0
 11
120.9123260526
 21
152.3096755577
 31
0.0
  0
LINE
  5
AB
330
1F
100
AcDbEntity
  8
0
  6
Continuous
 62
     7
370
    25
100
AcDbLine
 10
152.9123260526
 20
189.3096755577
 30
0.0
 11
120.9123260526
 21
189.3096755577
 31
0.0
  0
LINE
  5
AC
330
1F
100
AcDbEntity
  8
0
  6
Continuous
 62
     7
370
    25
100
AcDbLine
 10
180.9123260526
 20
96.3096755577
 30
0.0
 11
194.9123260526
 21
96.3096755577
 31
0.0
  0
LINE
  5
AD
330
1F
100
AcDbEntity
  8
0
  6
Continuous
 62
     7
370
    25
100
AcDbLine
 10
92.9123260526
 20
96.3096755577
 30
0.0
 11
78.9123260526
 21
96.3096755577
 31
0.0
  0
LINE
  5
AE
330
1F
100
AcDbEntity
  8
0
  6
Continuous
 62
     7
370
    25
100
AcDbLine
 10
152.4123260526
 20
197.3096755577
 30
0.0
 11
121.4123260526
 21
197.3096755577
 31
0.0
  0
LINE
  5
AF
330
1F
100
AcDbEntity
  8
0
  6
Continuous
 62
     7
370
    25
100
AcDbLine
 10
124.4123260526
 20
-36.1277412153
 30
0.0
 11
124.4123260526
 21
-132.7950677553
 31
0.0
  0
LINE
  5
B0
330
1F
100
AcDbEntity
  8
0
  6
Continuous
 62
     7
370
    25
100
AcDbLine
 10
149.4123260526
 20
-132.8005508557
 30
0.0
 11
149.4123260526
 21
-36.1277412153
 31
0.0
  0
LINE
  5
B1
330
1F
100
AcDbEntity
  8
0
  6
Continuous
 62
     7
370
    25
100
AcDbLine
 10
195.4123260526
 20
-120.1277412153
 30
0.0
 11
149.4123260526
 21
-120.1277412153
 31
0.0
  0
LINE
  5
B2
330
1F
100
AcDbEntity
  8
0
  6
Continuous
 62
     7
370
    25
100
AcDbLine
 10
124.4123260526
 20
-120.1277412153
 30
0.0
 11
78.4123260526
 21
-120.1277412153
 31
0.0
  0
CIRCLE
  5
B3
330
1F
100
AcDbEntity
  8
0
  6
Continuous
 62
     7
370
    25
100
AcDbCircle
 10
136.9123260526
 20
-147.1277412153
 30
0.0
 40
15.99999999999997
  0
CIRCLE
  5
B4
330
1F
100
AcDbEntity
  8
0
  6
Continuous
 62
     7
370
    25
100
AcDbCircle
 10
136.9123260526
 20
-147.1277412153
 30
0.0
 40
19.0
  0
LINE
  5
B5
330
1F
100
AcDbEntity
  8
0
  6
Continuous
 62
     7
370
    25
100
AcDbLine
 10
136.9123260526
 20
-36.1277412153
 30
0.0
 11
149.4123260526
 21
-36.1277412153
 31
0.0
  0
LINE
  5
B6
330
1F
100
AcDbEntity
  8
0
  6
Continuous
 62
     7
370
    25
100
AcDbLine
 10
124.4123260526
 20
-36.1277412153
 30
0.0
 11
136.9123260526
 21
-36.1277412153
 31
0.0
  0
CIRCLE
  5
B7
330
1F
100
AcDbEntity
  8
0
  6
Continuous
 62
     7
370
    25
100
AcDbCircle
 10
85.9123260526
 20
-147.1277412153
 30
0.0
 40
4.599999999999994
  0
CIRCLE
  5
B8
330
1F
100
AcDbEntity
  8
0
  6
Continuous
 62
     7
370
    25
100
AcDbCircle
 10
85.9123260526
 20
-147.1277412153
 30
0.0
 40
7.0
  0
CIRCLE
  5
B9
330
1F
100
AcDbEntity
  8
0
  6
Continuous
 62
     7
370
    25
100
AcDbCircle
 10
187.9123260526
 20
-147.1277412153
 30
0.0
 40
4.599999999999994
  0
CIRCLE
  5
BA
330
1F
100
AcDbEntity
  8
0
  6
Continuous
 62
     7
370
    25
100
AcDbCircle
 10
187.9123260526
 20
-147.1277412153
 30
0.0
 40
7.0
  0
CIRCLE
  5
BB
330
1F
100
AcDbEntity
  8
0
  6
Continuous
 62
     7
370
    25
100
AcDbCircle
 10
187.9123260526
 20
-147.1277412153
 30
0.0
 40
1.5
  0
CIRCLE
  5
BC
330
1F
100
AcDbEntity
  8
0
  6
Continuous
 62
     7
370
    25
100
AcDbCircle
 10
187.9123260526
 20
-147.1277412153
 30
0.0
 40
2.0
  0
CIRCLE
  5
BD
330
1F
100
AcDbEntity
  8
0
  6
Continuous
 62
     7
370
    25
100
AcDbCircle
 10
85.9123260526
 20
-147.1277412153
 30
0.0
 40
1.5
  0
CIRCLE
  5
BE
330
1F
100
AcDbEntity
  8
0
  6
Continuous
 62
     7
370
    25
100
AcDbCircle
 10
85.9123260526
 20
-147.1277412153
 30
0.0
 40
2.0
  0
LINE
  5
BF
330
1F
100
AcDbEntity
  8
0
  6
Continuous
 62
     7
370
    25
100
AcDbLine
 10
195.4123260526
 20
-172.583585338
 30
0.0
 11
78.4123260526
 21
-172.583585338
 31
0.0
  0
LINE
  5
C0
330
1F
100
AcDbEntity
  8
0
  6
Continuous
 62
     7
370
    25
100
AcDbLine
 10
195.4123260526
 20
-120.1277412153
 30
0.0
 11
195.4123260526
 21
-172.583585338
 31
0.0
  0
LINE
  5
C1
330
1F
100
AcDbEntity
  8
0
  6
Continuous
 62
     7
370
    25
100
AcDbLine
 10
78.4123260526
 20
-120.1277412153
 30
0.0
 11
78.4123260526
 21
-172.583585338
 31
0.0
  0
LINE
  5
C2
330
1F
100
AcDbEntity
  8
0
  6
Continuous
 62
     7
370
    25
100
AcDbLine
 10
195.4123260526
 20
-187.583585338
 30
0.0
 11
78.4123260526
 21
-187.583585338
 31
0.0
  0
LINE
  5
C3
330
1F
100
AcDbEntity
  8
0
  6
Continuous
 62
     7
370
    25
100
AcDbLine
 10
195.4123260526
 20
-172.583585338
 30
0.0
 11
195.4123260526
 21
-187.583585338
 31
0.0
  0
LINE
  5
C4
330
1F
100
AcDbEntity
  8
0
  6
Continuous
 62
     7
370
    25
100
AcDbLine
 10
78.4123260526
 20
-172.583585338
 30
0.0
 11
78.4123260526
 21
-187.583585338
 31
0.0
  0
CIRCLE
  5
C5
330
1F
100
AcDbEntity
  8
0
  6
Continuous
 62
     7
370
    25
100
AcDbCircle
 10
136.9123260526
 20
-147.1277412153
 30
0.0
 40
15.49999999999997
  0
INSERT
  5
D1
330
1F
100
AcDbEntity
  8
FORMAT
 62
     7
100
AcDbBlockReference
  2
SW_CENTERMARKSYMBOL_0
 10
136.9123260526
 20
-147.1277412153
 30
0.0
  0
INSERT
  5
DD
330
1F
100
AcDbEntity
  8
FORMAT
 62
     7
100
AcDbBlockReference
  2
SW_CENTERMARKSYMBOL_1
 10
85.9123260526
 20
-147.1277412153
 30
0.0
  0
INSERT
  5
E9
330
1F
100
AcDbEntity
  8
FORMAT
 62
     7
100
AcDbBlockReference
  2
SW_CENTERMARKSYMBOL_2
 10
187.9123260526
 20
-147.1277412153
 30
0.0
  0
LINE
  5
EA
330
1F
100
AcDbEntity
  8
0
  6
Continuous
 62
     7
370
    25
100
AcDbLine
 10
371.3484126949
 20
80.3898330784
 30
0.0
 11
371.3484126949
 21
96.3096755577
 31
0.0
  0
LINE
  5
EB
330
1F
100
AcDbEntity
  8
0
  6
Continuous
 62
     7
370
    25
100
AcDbLine
 10
357.3484126949
 20
96.3096755577
 30
0.0
 11
357.3484126949
 21
80.3864851785
 31
0.0
  0
LINE
  5
EC
330
1F
100
AcDbEntity
  8
0
  6
Continuous
 62
     7
370
    25
100
AcDbLine
 10
383.3484126949
 20
73.5178017785
 30
0.0
 11
383.3484126949
 21
149.3096755577
 31
0.0
  0
LINE
  5
ED
330
1F
100
AcDbEntity
  8
0
  6
Continuous
 62
     7
370
    25
100
AcDbLine
 10
345.3484126949
 20
78.3135754462
 30
0.0
 11
345.3484126949
 21
73.493001651
 31
0.0
  0
LINE
  5
EE
330
1F
100
AcDbEntity
  8
0
  6
Continuous
 62
     7
370
    25
100
AcDbLine
 10
345.3484126949
 20
149.3096755577
 30
0.0
 11
345.3484126949
 21
103.3096755577
 31
0.0
  0
LINE
  5
EF
330
1F
100
AcDbEntity
  8
0
  6
Continuous
 62
     7
370
    25
100
AcDbLine
 10
383.3484126949
 20
149.3096755577
 30
0.0
 11
380.3484126949
 21
152.3096755577
 31
0.0
  0
LINE
  5
F0
330
1F
100
AcDbEntity
  8
0
  6
Continuous
 62
     7
370
    25
100
AcDbLine
 10
348.3484126949
 20
152.3096755577
 30
0.0
 11
345.3484126949
 21
149.3096755577
 31
0.0
  0
LINE
  5
F1
330
1F
100
AcDbEntity
  8
0
  6
Continuous
 62
     7
370
    25
100
AcDbLine
 10
380.3484126949
 20
152.3096755577
 30
0.0
 11
380.3484126949
 21
189.3096755577
 31
0.0
  0
LINE
  5
F2
330
1F
100
AcDbEntity
  8
0
  6
Continuous
 62
     7
370
    25
100
AcDbLine
 10
348.3484126949
 20
189.3096755577
 30
0.0
 11
348.3484126949
 21
152.3096755577
 31
0.0
  0
LINE
  5
F3
330
1F
100
AcDbEntity
  8
0
  6
Continuous
 62
     7
370
    25
100
AcDbLine
 10
253.3484126949
 20
78.3096755577
 30
0.0
 11
345.3509628033
 21
78.3096755577
 31
0.0
  0
LINE
  5
F4
330
1F
100
AcDbEntity
  8
0
  6
Continuous
 62
     7
370
    25
100
AcDbLine
 10
345.3484126949
 20
103.3096755577
 30
0.0
 11
253.3484126949
 21
103.3096755577
 31
0.0
  0
LINE
  5
F5
330
1F
100
AcDbEntity
  8
0
  6
Continuous
 62
     7
370
    25
100
AcDbLine
 10
379.8484126949
 20
189.3096755577
 30
0.0
 11
379.8484126949
 21
197.3096755577
 31
0.0
  0
LINE
  5
F6
330
1F
100
AcDbEntity
  8
0
  6
Continuous
 62
     7
370
    25
100
AcDbLine
 10
348.8484126949
 20
197.3096755577
 30
0.0
 11
348.8484126949
 21
189.3096755577
 31
0.0
  0
LINE
  5
F7
330
1F
100
AcDbEntity
  8
0
  6
Continuous
 62
     7
370
    25
100
AcDbLine
 10
389.8042568176
 20
63.3096755577
 30
0.0
 11
404.8042568176
 21
63.3096755577
 31
0.0
  0
LINE
  5
F8
330
1F
100
AcDbEntity
  8
0
  6
Continuous
 62
     7
370
    25
100
AcDbLine
 10
404.8042568176
 20
63.3096755577
 30
0.0
 11
404.8042568176
 21
56.3096755577
 31
0.0
  0
LINE
  5
F9
330
1F
100
AcDbEntity
  8
0
  6
Continuous
 62
     7
370
    25
100
AcDbLine
 10
404.8042568176
 20
56.3096755577
 30
0.0
 11
384.248161437
 21
56.3096755577
 31
0.0
  0
ARC
  5
FA
330
1F
100
AcDbEntity
  8
0
  6
Continuous
 62
     7
370
    25
100
AcDbCircle
 10
364.3484126949
 20
54.3096755577
 30
0.0
 40
20.00000000000003
100
AcDbArc
 50
5.7391704773
 51
354.2608295227
  0
LINE
  5
FB
330
1F
100
AcDbEntity
  8
0
  6
Continuous
 62
     7
370
    25
100
AcDbLine
 10
384.248161437
 20
52.3096755577
 30
0.0
 11
404.8042568176
 21
52.3096755577
 31
0.0
  0
LINE
  5
FC
330
1F
100
AcDbEntity
  8
0
  6
Continuous
 62
     7
370
    25
100
AcDbLine
 10
404.8042568176
 20
52.3096755577
 30
0.0
 11
404.8042568176
 21
45.3096755577
 31
0.0
  0
LINE
  5
FD
330
1F
100
AcDbEntity
  8
0
  6
Continuous
 62
     7
370
    25
100
AcDbLine
 10
404.8042568176
 20
45.3096755577
 30
0.0
 11
389.8042568176
 21
45.3096755577
 31
0.0
  0
ARC
  5
FE
330
1F
100
AcDbEntity
  8
0
  6
Continuous
 62
     7
370
    25
100
AcDbCircle
 10
364.3484126949
 20
54.3096755577
 30
0.0
 40
27.00000000000004
100
AcDbArc
 50
19.4712206345
 51
340.5287793655
  0
LINE
  5
FF
330
1F
100
AcDbEntity
  8
0
  6
Continuous
 62
     7
370
    25
100
AcDbLine
 10
371.3484126949
 20
96.3096755577
 30
0.0
 11
357.3484126949
 21
96.3096755577
 31
0.0
  0
LINE
  5
100
330
1F
100
AcDbEntity
  8
0
  6
Continuous
 62
     7
370
    25
100
AcDbLine
 10
383.3484126949
 20
149.3096755577
 30
0.0
 11
345.3484126949
 21
149.3096755577
 31
0.0
  0
SPLINE
  5
101
330
1F
100
AcDbEntity
  8
0
  6
Continuous
 62
     7
370
    25
100
AcDbSpline
210
0.0
220
0.0
230
1.0
 70
     8
 71
     3
 72
    29
 73
    25
 74
     0
 42
0.00000001
 43
0.00000001
 40
0.0
 40
0.0
 40
0.0
 40
0.0
 40
0.0457744025738354
 40
0.0930254257498544
 40
0.1387678979205576
 40
0.185653564932063
 40
0.2353447884768357
 40
0.2861270910290682
 40
0.3431413266554962
 40
0.401952118938559
 40
0.4428751552544571
 40
0.4849057472956028
 40
0.5258688369113641
 40
0.5681345119868352
 40
0.607739581060854
 40
0.6481548135168068
 40
0.6957420231265704
 40
0.7442836445898953
 40
0.8012927200543544
 40
0.8600546547118019
 40
0.9058381976606386
 40
0.9528903578327137
 40
0.9987112165129582
 40
0.9999999999999999
 40
0.9999999999999999
 40
0.9999999999999999
 40
0.9999999999999999
 10
345.3484126949139
 20
103.3096755577313
 30
0.0
 10
345.3661046778815
 20
103.2828663596209
 30
0.0
 10
345.402059363369
 20
103.2283831347617
 30
0.0
 10
345.6848257826346
 20
102.7946411211786
 30
0.0
 10
346.1108780348719
 20
102.1225252360826
 30
0.0
 10
346.669637556598
 20
101.2030553031156
 30
0.0
 10
347.3350744720188
 20
100.0344615522262
 30
0.0
 10
348.09001464722
 20
98.57089661682225
 30
0.0
 10
348.8703488164195
 20
96.80152568131794
 30
0.0
 10
349.4955079904773
 20
94.92927750476915
 30
0.0
 10
349.8868446616154
 20
93.10401498391927
 30
0.0
 10
350.058806419023
 20
91.43959267690322
 30
0.0
 10
350.0322425469342
 20
89.73714260298327
 30
0.0
 10
349.8135527124341
 20
88.10110790089797
 30
0.0
 10
349.4408223533322
 20
86.54874113932257
 30
0.0
 10
348.937552279819
 20
85.02977049831107
 30
0.0
 10
348.3156775170814
 20
83.53728762515031
 30
0.0
 10
347.5812629168219
 20
82.04030631540932
 30
0.0
 10
346.8145245989347
 20
80.65750212271739
 30
0.0
 10
346.1617134010687
 20
79.57732858204999
 30
0.0
 10
345.688341235845
 20
78.83034314310471
 30
0.0
 10
345.4298866034798
 20
78.43329545573118
 30
0.0
 10
345.3190398457552
 20
78.26488899462804
 30
0.0
 10
345.350120212312
 20
78.31227899299884
 30
0.0
 10
345.3509704812028
 20
78.31357544622034
 30
0.0
  0
LINE
  5
102
330
1F
100
AcDbEntity
  8
0
  6
Continuous
 62
     7
370
    25
100
AcDbLine
 10
380.3484126949
 20
152.3096755577
 30
0.0
 11
348.3484126949
 21
152.3096755577
 31
0.0
  0
LINE
  5
103
330
1F
100
AcDbEntity
  8
0
  6
Continuous
 62
     7
370
    25
100
AcDbLine
 10
380.3484126949
 20
189.3096755577
 30
0.0
 11
348.3484126949
 21
189.3096755577
 31
0.0
  0
LINE
  5
104
330
1F
100
AcDbEntity
  8
0
  6
Continuous
 62
     7
370
    25
100
AcDbLine
 10
253.3484126949
 20
78.3096755577
 30
0.0
 11
253.3484126949
 21
103.3096755577
 31
0.0
  0
LINE
  5
105
330
1F
100
AcDbEntity
  8
0
  6
Continuous
 62
     7
370
    25
100
AcDbLine
 10
379.8484126949
 20
197.3096755577
 30
0.0
 11
348.8484126949
 21
197.3096755577
 31
0.0
  0
LINE
  5
106
330
1F
100
AcDbEntity
  8
0
  6
Continuous
 62
     7
370
    25
100
AcDbLine
 10
376.2422242386
 20
-176.0581349742
 30
0.0
 11
396.3947675025
 21
-164.4243193807
 31
0.0
  0
LINE
  5
107
330
1F
100
AcDbEntity
  8
0
  6
Continuous
 62
     7
370
    25
100
AcDbLine
 10
313.6632741036
 20
-212.1841939224
 30
0.0
 11
333.8158173674
 21
-200.5503783289
 31
0.0
  0
LINE
  5
108
330
1F
100
AcDbEntity
  8
0
  6
Continuous
 62
     7
370
    25
100
AcDbLine
 10
369.3969617213
 20
-117.6576808122
 30
0.0
 11
362.2586656521
 21
-121.7785314182
 31
0.0
  0
LINE
  5
109
330
1F
100
AcDbEntity
  8
0
  6
Continuous
 62
     7
370
    25
100
AcDbLine
 10
384.592563753
 20
-120.0611153553
 30
0.0
 11
384.592563753
 21
-109.8078164166
 31
0.0
  0
LINE
  5
10A
330
1F
100
AcDbEntity
  8
0
  6
Continuous
 62
     7
370
    25
100
AcDbLine
 10
370.592563753
 20
-109.8078164166
 30
0.0
 11
370.592563753
 21
-117.0801489499
 31
0.0
  0
LINE
  5
10B
330
1F
100
AcDbEntity
  8
0
  6
Continuous
 62
     7
370
    25
100
AcDbLine
 10
360.5301179125
 20
-120.7806620483
 30
0.0
 11
360.5301179125
 21
-87.3495602381
 31
0.0
  0
LINE
  5
10C
330
1F
100
AcDbEntity
  8
0
  6
Continuous
 62
     7
370
    25
100
AcDbLine
 10
322.5301179125
 20
-87.3495602381
 30
0.0
 11
322.5301179125
 21
-135.5120572775
 31
0.0
  0
LINE
  5
10D
330
1F
100
AcDbEntity
  8
0
  6
Continuous
 62
     7
370
    25
100
AcDbLine
 10
426.2684627031
 20
-169.6022371598
 30
0.0
 11
401.7424447123
 21
-155.4436683474
 31
0.0
  0
LINE
  5
10E
330
1F
100
AcDbEntity
  8
0
  6
Continuous
 62
     7
370
    25
100
AcDbLine
 10
381.8448889922
 20
-172.823785457
 30
0.0
 11
413.7694785452
 21
-191.2534587194
 31
0.0
  0
LINE
  5
10F
330
1F
100
AcDbEntity
  8
0
  6
Continuous
 62
     7
370
    25
100
AcDbLine
 10
354.9673297928
 20
-79.5949436215
 30
0.0
 11
352.8456647591
 21
-78.3697343359
 31
0.0
  0
LINE
  5
110
330
1F
100
AcDbEntity
  8
0
  6
Continuous
 62
     7
370
    25
100
AcDbLine
 10
330.2145710658
 20
-78.3697343359
 30
0.0
 11
328.0929060321
 21
-79.5949436215
 31
0.0
  0
LINE
  5
111
330
1F
100
AcDbEntity
  8
0
  6
Continuous
 62
     7
370
    25
100
AcDbLine
 10
357.5301179125
 20
-81.4341214746
 30
0.0
 11
357.5301179125
 21
-54.6879277627
 31
0.0
  0
LINE
  5
112
330
1F
100
AcDbEntity
  8
0
  6
Continuous
 62
     7
370
    25
100
AcDbLine
 10
325.5301179125
 20
-54.6879277627
 30
0.0
 11
325.5301179125
 21
-81.4341214746
 31
0.0
  0
LINE
  5
113
330
1F
100
AcDbEntity
  8
0
  6
Continuous
 62
     7
370
    25
100
AcDbLine
 10
357.0301179125
 20
-52.396888181
 30
0.0
 11
357.0301179125
 21
-48.1556012676
 31
0.0
  0
LINE
  5
114
330
1F
100
AcDbEntity
  8
0
  6
Continuous
 62
     7
370
    25
100
AcDbLine
 10
326.0301179125
 20
-48.1556012676
 30
0.0
 11
326.0301179125
 21
-52.396888181
 31
0.0
  0
LINE
  5
115
330
1F
100
AcDbEntity
  8
0
  6
Continuous
 62
     7
370
    25
100
AcDbLine
 10
354.2892628941
 20
-131.8756277472
 30
0.0
 11
364.8958646119
 21
-137.9986885859
 31
0.0
  0
LINE
  5
116
330
1F
100
AcDbEntity
  8
0
  6
Continuous
 62
     7
370
    25
100
AcDbLine
 10
354.2892628941
 20
-126.159842064
 30
0.0
 11
354.2892628941
 21
-131.8756277472
 31
0.0
  0
LINE
  5
117
330
1F
100
AcDbEntity
  8
0
  6
Continuous
 62
     7
370
    25
100
AcDbLine
 10
368.8246173324
 20
-134.5509235721
 30
0.0
 11
354.2892628941
 21
-126.159842064
 31
0.0
  0
LWPOLYLINE
  5
118
330
1F
100
AcDbEntity
  8
0
  6
Continuous
 62
     7
370
    25
100
AcDbPolyline
 90
       66
 70
   128
 43
0.0
 10
368.8246173324
 20
-131.2847603245
 10
369.0183401962
 20
-129.8853434357
 10
369.3335088863
 20
-128.5835526004
 10
369.7673652797
 20
-127.3907801289
 10
370.316112586
 20
-126.3174642834
 10
370.9749485749
 20
-125.3729979301
 10
371.7381076013
 20
-124.5656463398
 10
372.5989110619
 20
-123.9024748563
 10
373.5498258418
 20
-123.3892870656
 10
374.5825302383
 20
-123.0305740078
 10
375.6879867866
 20
-122.829474874
 10
376.8565213489
 20
-122.7877495352
 10
378.0779077752
 20
-122.9057631406
 10
379.3414573951
 20
-123.1824829224
 10
380.6361125573
 20
-123.6154872339
 10
381.9505433976
 20
-124.2009867416
 10
383.2732469898
 20
-124.9338575871
 10
384.5926480105
 20
-125.807686227
 10
385.8972000384
 20
-126.8148255594
 10
387.1754865991
 20
-127.9464618461
 10
388.4163210745
 20
-129.1926918436
 10
389.6088445993
 20
-130.5426094689
 10
390.7426210898
 20
-131.9844012417
 10
391.807728573
 20
-133.5054496672
 10
392.7948460164
 20
-135.0924436548
 10
393.6953348982
 20
-136.7314950074
 10
394.5013148061
 20
-138.4082599601
 10
395.2057324003
 20
-140.1080647066
 10
395.802423139
 20
-141.8160338134
 10
396.2861652264
 20
-143.5172203986
 10
396.6527253097
 20
-145.1967369357
 10
396.8988955262
 20
-146.8398855386
 10
397.0225215764
 20
-148.4322865864
 10
397.0225215764
 20
-149.9600045634
 10
396.8988955262
 20
-151.409670012
 10
396.6527253097
 20
-152.7685965327
 10
396.2861652264
 20
-154.0248918062
 10
395.802423139
 20
-155.1675616655
 10
395.2057324003
 20
-156.1866063096
 10
394.5013148061
 20
-157.0731078136
 10
393.6953348982
 20
-157.8193081722
 10
392.7948460164
 20
-158.4186771921
 10
391.807728573
 20
-158.8659696388
 10
390.7426210898
 20
-159.15727114
 10
389.6088445993
 20
-159.2900324404
 10
388.4163210745
 20
-159.2630917113
 10
387.1754865991
 20
-159.076684718
 10
385.8972000384
 20
-158.7324427567
 10
384.5926480105
 20
-158.2333783782
 10
383.2732469898
 20
-157.5838590248
 10
381.9505433976
 20
-156.7895688094
 10
380.6361125573
 20
-155.8574587722
 10
379.3414573951
 20
-154.7956860506
 10
378.0779077752
 20
-153.613542494
 10
376.8565213489
 20
-152.3213733482
 10
375.6879867866
 20
-150.9304867214
 10
374.5825302383
 20
-149.4530546245
 10
373.5498258418
 20
-147.90200645
 10
372.5989110619
 20
-146.2909158241
 10
371.7381076013
 20
-144.6338818198
 10
370.9749485749
 20
-142.9454055729
 10
370.316112586
 20
-141.2402633783
 10
369.7673652797
 20
-139.5333773788
 10
369.3335088863
 20
-137.839684978
 10
369.0183401962
 20
-136.1740081186
 10
368.8246173324
 20
-134.5509235721
  0
LINE
  5
119
330
1F
100
AcDbEntity
  8
0
  6
Continuous
 62
     7
370
    25
100
AcDbLine
 10
354.2892628941
 20
-122.8936788165
 30
0.0
 11
368.8246173324
 21
-131.2847603245
 31
0.0
  0
LINE
  5
11A
330
1F
100
AcDbEntity
  8
0
  6
Continuous
 62
     7
370
    25
100
AcDbLine
 10
354.2892628941
 20
-117.1778931333
 30
0.0
 11
354.2892628941
 21
-122.8936788165
 31
0.0
  0
LINE
  5
11B
330
1F
100
AcDbEntity
  8
0
  6
Continuous
 62
     7
370
    25
100
AcDbLine
 10
364.8958646119
 20
-123.300953972
 30
0.0
 11
354.2892628941
 21
-117.1778931333
 31
0.0
  0
LWPOLYLINE
  5
11C
330
1F
100
AcDbEntity
  8
0
  6
Continuous
 62
     7
370
    25
100
AcDbPolyline
 90
       70
 70
   128
 43
0.0
 10
364.8958646119
 20
-137.9986885859
 10
365.4714393936
 20
-139.9929020709
 10
366.1618671148
 20
-141.9940240845
 10
366.9625968273
 20
-143.9888642492
 10
367.8683505287
 20
-145.9642735944
 10
368.8731579517
 20
-147.9072312272
 10
369.9703959172
 20
-149.8049301605
 10
371.1528319915
 20
-151.6448617289
 10
372.4126721578
 20
-153.4148980403
 10
373.7416121912
 20
-155.1033719167
 10
375.1308923957
 20
-156.6991537979
 10
376.5713553436
 20
-158.1917251023
 10
378.0535062364
 20
-159.5712475597
 10
379.5675754901
 20
-160.8286280604
 10
381.1035831311
 20
-161.9555785926
 10
382.6514045791
 20
-162.9446708719
 10
384.2008373832
 20
-163.7893853057
 10
385.7416684712
 20
-164.4841539666
 10
387.2637414691
 20
-165.0243972932
 10
388.7570236466
 20
-165.4065542766
 10
390.211672048
 20
-165.6281059326
 10
391.6180983716
 20
-165.6875919055
 10
392.9670321712
 20
-165.584620094
 10
394.249581962
 20
-165.3198692358
 10
395.4572938288
 20
-164.8950844338
 10
396.5822071498
 20
-164.3130656532
 10
397.6169070692
 20
-163.5776492654
 10
398.5545733719
 20
-162.6936827608
 10
399.3890254391
 20
-161.6669927965
 10
400.1147629876
 20
-160.5043467901
 10
400.7270023251
 20
-159.213408312
 10
401.2217078814
 20
-157.8026865715
 10
401.5956188095
 20
-156.2814803279
 10
401.846270479
 20
-154.6598165983
 10
401.9720107215
 20
-152.9483845644
 10
401.9720107215
 20
-151.1584651146
 10
401.846270479
 20
-149.3018564868
 10
401.5956188095
 20
-147.3907964997
 10
401.2217078814
 20
-145.4378818877
 10
400.7270023251
 20
-143.4559852696
 10
400.1147629876
 20
-141.4581702988
 10
399.3890254391
 20
-139.4576055545
 10
398.5545733719
 20
-137.4674777408
 10
397.6169070692
 20
-135.500904767
 10
396.5822071498
 20
-133.5708492808
 10
395.4572938288
 20
-131.6900332254
 10
394.249581962
 20
-129.8708539826
 10
392.9670321712
 20
-128.1253026557
 10
391.6180983716
 20
-126.4648850303
 10
390.211672048
 20
-124.900545734
 10
388.7570236466
 20
-123.442596095
 10
387.2637414691
 20
-122.1006461748
 10
385.7416684712
 20
-120.8835414243
 10
384.2008373832
 20
-119.7993043782
 10
382.6514045791
 20
-118.855081775
 10
381.1035831311
 20
-118.0570974495
 10
379.5675754901
 20
-117.4106113079
 10
378.0535062364
 20
-116.9198846579
 10
376.5713553436
 20
-116.5881521195
 10
375.1308923957
 20
-116.4176003049
 10
373.7416121912
 20
-116.4093534047
 10
372.4126721578
 20
-116.5634657783
 10
371.1528319915
 20
-116.8789215953
 10
369.9703959172
 20
-117.3536415318
 10
368.8731579517
 20
-117.9844964754
 10
367.8683505287
 20
-118.7673281518
 10
366.9625968273
 20
-119.6969765329
 10
366.1618671148
 20
-120.7673138501
 10
365.4714393936
 20
-121.9712849847
 10
364.8958646119
 20
-123.300953972
  0
LINE
  5
11D
330
1F
100
AcDbEntity
  8
0
  6
Continuous
 62
     7
370
    25
100
AcDbLine
 10
364.8958646119
 20
-137.9986885859
 30
0.0
 11
282.164371213
 21
-185.7585631275
 31
0.0
  0
LWPOLYLINE
  5
11E
330
1F
100
AcDbEntity
  8
0
  6
Continuous
 62
     7
370
    25
100
AcDbPolyline
 90
       26
 70
   128
 43
0.0
 10
282.164371213
 20
-185.7585631275
 10
282.7399459948
 20
-187.7527766126
 10
283.430373716
 20
-189.7538986262
 10
284.2311034285
 20
-191.7487387909
 10
285.1368571299
 20
-193.724148136
 10
286.1416645528
 20
-195.6671057689
 10
287.2389025184
 20
-197.5648047021
 10
288.4213385926
 20
-199.4047362705
 10
289.6811787589
 20
-201.174772582
 10
291.0101187924
 20
-202.8632464583
 10
292.3993989969
 20
-204.4590283395
 10
293.8398619447
 20
-205.9515996439
 10
295.3220128375
 20
-207.3311221013
 10
296.8360820913
 20
-208.5885026021
 10
298.3720897323
 20
-209.7154531342
 10
299.9199111803
 20
-210.7045454135
 10
301.4693439844
 20
-211.5492598473
 10
303.0101750723
 20
-212.2440285082
 10
304.5322480702
 20
-212.7842718348
 10
306.0255302478
 20
-213.1664288183
 10
307.4801786492
 20
-213.3879804743
 10
308.8866049728
 20
-213.4474664471
 10
310.2355387724
 20
-213.3444946356
 10
311.5180885632
 20
-213.0797437774
 10
312.7258004299
 20
-212.6549589754
 10
313.6632741036
 20
-212.1841939224
  0
LINE
  5
11F
330
1F
100
AcDbEntity
  8
0
  6
Continuous
 62
     7
370
    25
100
AcDbLine
 10
302.5827666259
 20
-175.0947615248
 30
0.0
 11
345.0091734971
 21
-150.6025181701
 31
0.0
  0
LWPOLYLINE
  5
120
330
1F
100
AcDbEntity
  8
0
  6
Continuous
 62
     7
370
    25
100
AcDbPolyline
 90
       30
 70
   128
 43
0.0
 10
338.0510623278
 20
-195.5701728021
 10
337.4108951053
 20
-196.8538026393
 10
336.655390591
 20
-198.0046011753
 10
335.7896463596
 20
-199.0148036892
 10
334.8195038006
 20
-199.8775940962
 10
333.7515087042
 20
-200.5871509372
 10
332.5928670961
 20
-201.1386866578
 10
331.3513966163
 20
-201.5284799107
 10
330.0354737714
 20
-201.7539006649
 10
328.6539774165
 20
-201.8134279513
 10
327.2162288474
 20
-201.7066601245
 10
325.7319289072
 20
-201.4343175734
 10
324.2110925327
 20
-200.9982378601
 10
322.6639811811
 20
-200.4013633217
 10
321.1010335931
 20
-199.6477212176
 10
319.5327953606
 20
-198.7423965563
 10
317.9698477726
 20
-197.6914977861
 10
316.422736421
 20
-196.5021155794
 10
314.9019000465
 20
-195.1822749906
 10
313.4176001063
 20
-193.7408813087
 10
311.9798515372
 20
-192.1876599714
 10
310.5983551823
 20
-190.5330909451
 10
309.2824323374
 20
-188.788338014
 10
308.0409618576
 20
-186.9651734553
 10
306.8823202495
 20
-185.0758986087
 10
305.8143251532
 20
-183.1332608762
 10
304.8441825941
 20
-181.1503677125
 10
303.9784383627
 20
-179.1405981855
 10
303.2229338484
 20
-177.1175127045
 10
302.5827666259
 20
-175.0947615248
  0
LINE
  5
121
330
1F
100
AcDbEntity
  8
0
  6
Continuous
 62
     7
370
    25
100
AcDbLine
 10
369.8115067687
 20
-177.235258496
 30
0.0
 11
338.0510623278
 21
-195.5701728021
 31
0.0
  0
LWPOLYLINE
  5
122
330
1F
100
AcDbEntity
  8
0
  6
Continuous
 62
     7
370
    25
100
AcDbPolyline
 90
       26
 70
   128
 43
0.0
 10
345.0091734971
 20
-150.6025181701
 10
345.6493407196
 20
-152.6252693498
 10
346.4048452339
 20
-154.6483548308
 10
347.2705894653
 20
-156.6581243578
 10
348.2407320243
 20
-158.6410175215
 10
349.3087271207
 20
-160.583655254
 10
350.4673687288
 20
-162.4729301006
 10
351.7088392086
 20
-164.2960946593
 10
353.0247620535
 20
-166.0408475904
 10
354.4062584084
 20
-167.6954166167
 10
355.8440069775
 20
-169.248637954
 10
357.3283069177
 20
-170.6900316359
 10
358.8491432922
 20
-172.0098722248
 10
360.3962546438
 20
-173.1992544314
 10
361.9592022318
 20
-174.2501532016
 10
363.5274404643
 20
-175.1554778629
 10
365.0903880523
 20
-175.909119967
 10
366.6374994039
 20
-176.5059945054
 10
368.1583357784
 20
-176.9420742187
 10
369.6426357186
 20
-177.2144167698
 10
371.0803842877
 20
-177.3211845966
 10
372.4618806426
 20
-177.2616573102
 10
373.7778034875
 20
-177.036236556
 10
375.0192739673
 20
-176.6464433031
 10
376.1779155754
 20
-176.0949075826
 10
376.2422242386
 20
-176.0581349742
  0
LINE
  5
123
330
1F
100
AcDbEntity
  8
0
  6
Continuous
 62
     7
370
    25
100
AcDbLine
 10
354.2892628941
 20
-131.8756277472
 30
0.0
 11
271.5577694952
 21
-179.6355022889
 31
0.0
  0
LINE
  5
124
330
1F
100
AcDbEntity
  8
0
  6
Continuous
 62
     7
370
    25
100
AcDbLine
 10
271.5577694952
 20
-179.6355022889
 30
0.0
 11
282.164371213
 21
-185.7585631275
 31
0.0
  0
LINE
  5
125
330
1F
100
AcDbEntity
  8
0
  6
Continuous
 62
     7
370
    25
100
AcDbLine
 10
354.2892628941
 20
-126.159842064
 30
0.0
 11
271.5577694952
 21
-173.9197166057
 31
0.0
  0
LINE
  5
126
330
1F
100
AcDbEntity
  8
0
  6
Continuous
 62
     7
370
    25
100
AcDbLine
 10
271.5577694952
 20
-173.9197166057
 30
0.0
 11
271.5577694952
 21
-179.6355022889
 31
0.0
  0
LINE
  5
127
330
1F
100
AcDbEntity
  8
0
  6
Continuous
 62
     7
370
    25
100
AcDbLine
 10
368.8246173324
 20
-131.2847603245
 30
0.0
 11
365.9957304713
 21
-132.9178419483
 31
0.0
  0
LINE
  5
128
330
1F
100
AcDbEntity
  8
0
  6
Continuous
 62
     7
370
    25
100
AcDbLine
 10
346.905319907
 20
-155.8427041308
 30
0.0
 11
308.0694657629
 21
-178.2621655165
 31
0.0
  0
LINE
  5
129
330
1F
100
AcDbEntity
  8
0
  6
Continuous
 62
     7
370
    25
100
AcDbLine
 10
332.5643631908
 20
-192.4027688104
 30
0.0
 11
362.9693390124
 21
-174.8503498823
 31
0.0
  0
LWPOLYLINE
  5
12A
330
1F
100
AcDbEntity
  8
0
  6
Continuous
 62
     7
370
    25
100
AcDbPolyline
 90
       23
 70
   128
 43
0.0
 10
308.0694657629
 20
-178.2621655165
 10
308.7970708871
 20
-179.9895976927
 10
309.6290014988
 20
-181.6914685219
 10
310.5577235054
 20
-183.3523655982
 10
311.5748262567
 20
-184.9572475805
 10
312.6710987127
 20
-186.4915804091
 10
313.8366128602
 20
-187.9414689283
 10
315.0608136227
 20
-189.2937827231
 10
316.3326144484
 20
-190.5362750304
 10
317.6404977121
 20
-191.6576936475
 10
318.9726190206
 20
-192.6478828336
 10
320.3169144769
 20
-193.4978752823
 10
321.6612099331
 20
-194.1999733303
 10
322.9933312416
 20
-194.7478186688
 10
324.3012145053
 20
-195.1364499258
 10
325.5730153311
 20
-195.3623475963
 10
326.7972160935
 20
-195.4234659161
 10
327.962730241
 20
-195.3192513881
 10
329.059002697
 20
-195.0506477954
 10
330.0761054483
 20
-194.6200876536
 10
331.0048274549
 20
-194.0314701821
 10
331.8367580666
 20
-193.2901259917
 10
332.5643631908
 20
-192.4027688104
  0
LINE
  5
12B
330
1F
100
AcDbEntity
  8
0
  6
Continuous
 62
     7
370
    25
100
AcDbLine
 10
354.2892628941
 20
-122.8936788165
 30
0.0
 11
271.5577694952
 21
-170.6535533581
 31
0.0
  0
LINE
  5
12C
330
1F
100
AcDbEntity
  8
0
  6
Continuous
 62
     7
370
    25
100
AcDbLine
 10
271.5577694952
 20
-170.6535533581
 30
0.0
 11
274.3866563563
 21
-172.2866349819
 31
0.0
  0
LINE
  5
12D
330
1F
100
AcDbEntity
  8
0
  6
Continuous
 62
     7
370
    25
100
AcDbLine
 10
354.2892628941
 20
-117.1778931333
 30
0.0
 11
271.5577694952
 21
-164.9377676749
 31
0.0
  0
LINE
  5
12E
330
1F
100
AcDbEntity
  8
0
  6
Continuous
 62
     7
370
    25
100
AcDbLine
 10
271.5577694952
 20
-164.9377676749
 30
0.0
 11
271.5577694952
 21
-170.6535533581
 31
0.0
  0
LINE
  5
12F
330
1F
100
AcDbEntity
  8
0
  6
Continuous
 62
     7
370
    25
100
AcDbLine
 10
308.0694657629
 20
-178.2621655165
 30
0.0
 11
302.5827666259
 21
-175.0947615248
 31
0.0
  0
LWPOLYLINE
  5
130
330
1F
100
AcDbEntity
  8
0
  6
Continuous
 62
     7
370
    25
100
AcDbPolyline
 90
       22
 70
   128
 43
0.0
 10
370.592563753
 20
-109.8078164166
 10
370.6053348734
 20
-109.5638260641
 10
370.763615397
 20
-108.9199440958
 10
371.098762096
 20
-108.2990575543
 10
371.6020948469
 20
-107.7172470747
 10
372.2605775957
 20
-107.189581243
 10
373.0571559853
 20
-106.729726327
 10
373.9711990537
 20
-106.3495923275
 10
374.9790335656
 20
-106.0590245153
 10
376.0545571366
 20
-105.8655484443
 10
377.169914271
 20
-105.7741750429
 10
378.296217805
 20
-105.7872708343
 10
379.4042970687
 20
-105.9044966445
 10
380.4654533911
 20
-106.1228163864
 10
381.452203381
 20
-106.4365756934
 10
382.3389907319
 20
-106.8376483644
 10
383.1028481172
 20
-107.3156468277
 10
383.7239920319
 20
-107.8581911744
 10
384.1863351749
 20
-108.4512297907
 10
384.4779031016
 20
-109.079403288
 10
384.5911443559
 20
-109.7264423027
 10
384.592563753
 20
-109.8078164166
  0
LINE
  5
131
330
1F
100
AcDbEntity
  8
0
  6
Continuous
 62
     7
370
    25
100
AcDbLine
 10
338.0510623278
 20
-195.5701728021
 30
0.0
 11
332.5643631908
 21
-192.4027688104
 31
0.0
  0
LWPOLYLINE
  5
132
330
1F
100
AcDbEntity
  8
0
  6
Continuous
 62
     7
370
    25
100
AcDbPolyline
 90
       34
 70
   128
 43
0.0
 10
360.5301179125
 20
-87.3495602381
 10
360.4621953898
 20
-86.4229383994
 10
360.2188961444
 20
-85.3724388891
 10
359.8011048122
 20
-84.3403992281
 10
359.212722198
 20
-83.3364552927
 10
358.459241872
 20
-82.369980637
 10
357.5476988769
 20
-81.4499989743
 10
356.486604044
 20
-80.5850999255
 10
355.2858645299
 20
-79.7833588201
 10
353.956691316
 20
-79.0522612988
 10
352.5114945343
 20
-78.398633422
 10
350.9637675978
 20
-77.8285779373
 10
349.3279612161
 20
-77.347417299
 10
347.6193484724
 20
-76.9596439744
 10
345.8538822236
 20
-76.6688784985
 10
344.0480461524
 20
-76.4778356703
 10
342.2187008637
 20
-76.3882992052
 10
340.3829264614
 20
-76.4011050809
 10
338.5578630767
 20
-76.5161337326
 10
336.7605508345
 20
-76.7323111687
 10
335.0077707551
 20
-77.0476189986
 10
333.3158880737
 20
-77.4591132782
 10
331.7006994431
 20
-77.9629519962
 10
330.1772854443
 20
-78.5544309463
 10
328.7598697835
 20
-79.2280276489
 10
327.4616864887
 20
-79.977452913
 10
326.2948563475
 20
-80.7957095569
 10
325.2702737387
 20
-81.6751577388
 10
324.397504914
 20
-82.607586288
 10
323.6846986807
 20
-83.5842893702
 10
323.1385103185
 20
-84.5961477721
 10
322.7640394411
 20
-85.6337140443
 10
322.5647823822
 20
-86.68730071
 10
322.5301179125
 20
-87.3495602381
  0
LWPOLYLINE
  5
133
330
1F
100
AcDbEntity
  8
0
  6
Continuous
 62
     7
370
    25
100
AcDbPolyline
 90
       29
 70
   128
 43
0.0
 10
426.2684627031
 20
-169.6022371598
 10
426.5405570616
 20
-169.7736266251
 10
427.2004078874
 20
-170.3317607375
 10
427.759447076
 20
-171.0316217834
 10
428.2098269425
 20
-171.8633852477
 10
428.5452251409
 20
-172.8153749947
 10
428.7609334157
 20
-173.874227175
 10
428.8539236955
 20
-175.0250778252
 10
428.8228906006
 20
-176.2517715248
 10
428.6682697676
 20
-177.5370881831
 10
428.3922317342
 20
-178.8629847719
 10
427.9986514693
 20
-180.2108486092
 10
427.4930539769
 20
-181.5617586415
 10
426.8825367377
 20
-182.8967510532
 10
426.1756700753
 20
-184.197085477
 10
425.3823768483
 20
-185.444508068
 10
424.5137931547
 20
-186.6215077475
 10
423.5821120055
 20
-187.71156202
 10
422.6004121618
 20
-188.6993689128
 10
421.5824745375
 20
-189.5710617827
 10
420.5425887455
 20
-190.3144039723
 10
419.4953525028
 20
-190.9189605868
 10
418.4554667108
 20
-191.3762449766
 10
417.4375290865
 20
-191.6798378711
 10
416.4558292428
 20
-191.8254774917
 10
415.5241480936
 20
-191.8111193772
 10
414.6555644
 20
-191.6369650843
 10
413.862271173
 20
-191.3054593573
 10
413.7694785452
 20
-191.2534587194
  0
ARC
  5
134
330
1F
100
AcDbEntity
  8
0
  6
Continuous
 62
     7
370
    25
100
AcDbCircle
 10
341.5301179125
 20
-99.9962785379
 30
0.0
 40
24.40797030807744
100
AcDbArc
 50
62.3803146822
 51
117.6196853178
  0
LWPOLYLINE
  5
135
330
1F
100
AcDbEntity
  8
0
  6
Continuous
 62
     7
370
    25
100
AcDbPolyline
 90
       32
 70
   128
 43
0.0
 10
357.5301179125
 20
-54.6879277627
 10
357.5081904685
 20
-54.2045212917
 10
357.333131362
 20
-53.2430046521
 10
356.9849311331
 20
-52.2973188924
 10
356.4674047364
 20
-51.3778251439
 10
355.7862222995
 20
-50.4945975722
 10
354.9488469996
 20
-49.6573130037
 10
353.9644532958
 20
-48.8751449032
 10
352.8438264114
 20
-48.1566628681
 10
351.5992441692
 20
-47.509738738
 10
350.2443424727
 20
-46.9414603489
 10
348.7939659083
 20
-46.4580538779
 10
347.2640051052
 20
-46.0648156273
 10
345.6712226341
 20
-45.7660539979
 10
344.0330693531
 20
-45.5650422844
 10
342.3674932123
 20
-45.4639828133
 10
340.6927426126
 20
-45.4639828133
 10
339.0271664718
 20
-45.5650422844
 10
337.3890131908
 20
-45.7660539979
 10
335.7962307197
 20
-46.0648156273
 10
334.2662699166
 20
-46.4580538779
 10
332.8158933522
 20
-46.9414603489
 10
331.4609916557
 20
-47.509738738
 10
330.2164094135
 20
-48.1566628681
 10
329.0957825291
 20
-48.8751449032
 10
328.1113888253
 20
-49.6573130037
 10
327.2740135254
 20
-50.4945975722
 10
326.5928310885
 20
-51.3778251439
 10
326.0753046918
 20
-52.2973188924
 10
325.7271044629
 20
-53.2430046521
 10
325.5520453564
 20
-54.2045212917
 10
325.5301179125
 20
-54.6879277627
  0
LWPOLYLINE
  5
136
330
1F
100
AcDbEntity
  8
0
  6
Continuous
 62
     7
370
    25
100
AcDbPolyline
 90
       31
 70
   128
 43
0.0
 10
357.0301179125
 20
-48.1556012676
 10
356.9957971353
 20
-47.5604721829
 10
356.7986024323
 20
-46.6148398883
 10
356.4284096988
 20
-45.6866650358
 10
355.8894133662
 20
-44.7864642174
 10
355.1877204785
 20
-43.9244370679
 10
354.3312814964
 20
-43.1103506995
 10
353.3298002158
 20
-42.353429036
 10
352.1946238198
 20
-41.6622483024
 10
350.9386143105
 20
-41.0446398525
 10
349.5760027776
 20
-40.5076014367
 10
348.1222281542
 20
-40.0572179151
 10
346.5937622877
 20
-39.6985923128
 10
345.0079233071
 20
-39.4357880012
 10
343.3826794017
 20
-39.2717826581
 10
341.7364452344
 20
-39.2084345297
 10
340.0878732961
 20
-39.2464613756
 10
338.4556425656
 20
-39.3854323363
 10
336.8582468693
 20
-39.6237728154
 10
335.3137853386
 20
-39.9587823201
 10
333.83975734
 20
-40.3866650586
 10
332.4528641996
 20
-40.9025729488
 10
331.1688199708
 20
-41.5006605479
 10
330.0021733878
 20
-42.1741512846
 10
328.9661430226
 20
-42.9154142397
 10
328.0724675133
 20
-43.7160506076
 10
327.3312725604
 20
-44.5669888585
 10
326.7509561989
 20
-45.4585875219
 10
326.338093645
 20
-46.3807444288
 10
326.0973627966
 20
-47.3230111728
 10
326.0301179125
 20
-48.1556012676
  0
LINE
  5
137
330
1F
100
AcDbEntity
  8
0
  6
Continuous
 62
     7
370
    25
100
AcDbLine
 10
-77.4136066758
 20
80.3864851785
 30
0.0
 11
-77.4136066758
 21
96.3096755577
 31
0.0
  0
LINE
  5
138
330
1F
100
AcDbEntity
  8
0
  6
Continuous
 62
     7
370
    25
100
AcDbLine
 10
-91.4136066758
 20
96.3096755577
 30
0.0
 11
-91.4136066758
 21
80.3898330784
 31
0.0
  0
LINE
  5
139
330
1F
100
AcDbEntity
  8
0
  6
Continuous
 62
     7
370
    25
100
AcDbLine
 10
-65.4136066758
 20
149.3096755577
 30
0.0
 11
-68.4136066758
 21
152.3096755577
 31
0.0
  0
LINE
  5
13A
330
1F
100
AcDbEntity
  8
0
  6
Continuous
 62
     7
370
    25
100
AcDbLine
 10
-100.4136066758
 20
152.3096755577
 30
0.0
 11
-103.4136066758
 21
149.3096755577
 31
0.0
  0
LINE
  5
13B
330
1F
100
AcDbEntity
  8
0
  6
Continuous
 62
     7
370
    25
100
AcDbLine
 10
-65.4136066758
 20
103.3096755577
 30
0.0
 11
-65.4136066758
 21
149.3096755577
 31
0.0
  0
LINE
  5
13C
330
1F
100
AcDbEntity
  8
0
  6
Continuous
 62
     7
370
    25
100
AcDbLine
 10
-65.4136066758
 20
73.493001651
 30
0.0
 11
-65.4136066758
 21
78.3135754462
 31
0.0
  0
LINE
  5
13D
330
1F
100
AcDbEntity
  8
0
  6
Continuous
 62
     7
370
    25
100
AcDbLine
 10
-103.4136066758
 20
149.3096755577
 30
0.0
 11
-103.4136066758
 21
73.5178017785
 31
0.0
  0
LINE
  5
13E
330
1F
100
AcDbEntity
  8
0
  6
Continuous
 62
     7
370
    25
100
AcDbLine
 10
-68.4136066758
 20
152.3096755577
 30
0.0
 11
-68.4136066758
 21
189.3096755577
 31
0.0
  0
LINE
  5
13F
330
1F
100
AcDbEntity
  8
0
  6
Continuous
 62
     7
370
    25
100
AcDbLine
 10
-100.4136066758
 20
189.3096755577
 30
0.0
 11
-100.4136066758
 21
152.3096755577
 31
0.0
  0
LINE
  5
140
330
1F
100
AcDbEntity
  8
0
  6
Continuous
 62
     7
370
    25
100
AcDbLine
 10
26.5863933242
 20
103.3096755577
 30
0.0
 11
-65.4136066758
 21
103.3096755577
 31
0.0
  0
LINE
  5
141
330
1F
100
AcDbEntity
  8
0
  6
Continuous
 62
     7
370
    25
100
AcDbLine
 10
-65.4161567841
 20
78.3096755577
 30
0.0
 11
26.5863933242
 21
78.3096755577
 31
0.0
  0
LINE
  5
142
330
1F
100
AcDbEntity
  8
0
  6
Continuous
 62
     7
370
    25
100
AcDbLine
 10
-68.9136066758
 20
189.3096755577
 30
0.0
 11
-68.9136066758
 21
197.3096755577
 31
0.0
  0
LINE
  5
143
330
1F
100
AcDbEntity
  8
0
  6
Continuous
 62
     7
370
    25
100
AcDbLine
 10
-99.9136066758
 20
197.3096755577
 30
0.0
 11
-99.9136066758
 21
189.3096755577
 31
0.0
  0
LINE
  5
144
330
1F
100
AcDbEntity
  8
0
  6
Continuous
 62
     7
370
    25
100
AcDbLine
 10
-124.8694507985
 20
45.3096755577
 30
0.0
 11
-109.8694507985
 21
45.3096755577
 31
0.0
  0
LINE
  5
145
330
1F
100
AcDbEntity
  8
0
  6
Continuous
 62
     7
370
    25
100
AcDbLine
 10
-124.8694507985
 20
52.3096755577
 30
0.0
 11
-124.8694507985
 21
45.3096755577
 31
0.0
  0
LINE
  5
146
330
1F
100
AcDbEntity
  8
0
  6
Continuous
 62
     7
370
    25
100
AcDbLine
 10
-104.3133554179
 20
52.3096755577
 30
0.0
 11
-124.8694507985
 21
52.3096755577
 31
0.0
  0
ARC
  5
147
330
1F
100
AcDbEntity
  8
0
  6
Continuous
 62
     7
370
    25
100
AcDbCircle
 10
-84.4136066758
 20
54.3096755577
 30
0.0
 40
20.0
100
AcDbArc
 50
185.7391704773
 51
174.2608295227
  0
LINE
  5
148
330
1F
100
AcDbEntity
  8
0
  6
Continuous
 62
     7
370
    25
100
AcDbLine
 10
-124.8694507985
 20
56.3096755577
 30
0.0
 11
-104.3133554179
 21
56.3096755577
 31
0.0
  0
LINE
  5
149
330
1F
100
AcDbEntity
  8
0
  6
Continuous
 62
     7
370
    25
100
AcDbLine
 10
-124.8694507985
 20
63.3096755577
 30
0.0
 11
-124.8694507985
 21
56.3096755577
 31
0.0
  0
LINE
  5
14A
330
1F
100
AcDbEntity
  8
0
  6
Continuous
 62
     7
370
    25
100
AcDbLine
 10
-109.8694507985
 20
63.3096755577
 30
0.0
 11
-124.8694507985
 21
63.3096755577
 31
0.0
  0
ARC
  5
14B
330
1F
100
AcDbEntity
  8
0
  6
Continuous
 62
     7
370
    25
100
AcDbCircle
 10
-84.4136066758
 20
54.3096755577
 30
0.0
 40
27.00000000000001
100
AcDbArc
 50
199.4712206345
 51
160.5287793655
  0
LINE
  5
14C
330
1F
100
AcDbEntity
  8
0
  6
Continuous
 62
     7
370
    25
100
AcDbLine
 10
-91.4136066758
 20
96.3096755577
 30
0.0
 11
-77.4136066758
 21
96.3096755577
 31
0.0
  0
LINE
  5
14D
330
1F
100
AcDbEntity
  8
0
  6
Continuous
 62
     7
370
    25
100
AcDbLine
 10
-68.4136066758
 20
152.3096755577
 30
0.0
 11
-100.4136066758
 21
152.3096755577
 31
0.0
  0
LINE
  5
14E
330
1F
100
AcDbEntity
  8
0
  6
Continuous
 62
     7
370
    25
100
AcDbLine
 10
-65.4136066758
 20
149.3096755577
 30
0.0
 11
-103.4136066758
 21
149.3096755577
 31
0.0
  0
LWPOLYLINE
  5
14F
330
1F
100
AcDbEntity
  8
0
  6
Continuous
 62
     7
370
    25
100
AcDbPolyline
 90
       23
 70
   128
 43
0.0
 10
-65.4161644621
 20
78.3135754462
 10
-65.5050017888
 20
78.4490388924
 10
-65.7480032537
 20
78.8240695609
 10
-66.1352396874
 20
79.4365185747
 10
-66.6561425577
 20
80.2940903668
 10
-67.2742241827
 20
81.3752475283
 10
-68.0250309945
 20
82.8199688758
 10
-68.7828611884
 20
84.5191903227
 10
-69.3711965726
 20
86.1702680834
 10
-69.8325898193
 20
88.0068104936
 10
-70.0516718633
 20
89.5787525067
 10
-70.0983244913
 20
91.2307503993
 10
-69.9631654895
 20
92.8259221889
 10
-69.6587563349
 20
94.4090655869
 10
-69.1017710484
 20
96.2596581521
 10
-68.4050812204
 20
97.9876200584
 10
-67.6682400596
 20
99.5077962233
 10
-66.9370662463
 20
100.8435913131
 10
-66.2420297601
 20
102.010399088
 10
-65.7088272609
 20
102.8562009057
 10
-65.4907988364
 20
103.1920281826
 10
-65.4136066758
 20
103.3096755577
 10
-65.4136066758
 20
103.3096755577
  0
LINE
  5
150
330
1F
100
AcDbEntity
  8
0
  6
Continuous
 62
     7
370
    25
100
AcDbLine
 10
-68.4136066758
 20
189.3096755577
 30
0.0
 11
-100.4136066758
 21
189.3096755577
 31
0.0
  0
LINE
  5
151
330
1F
100
AcDbEntity
  8
0
  6
Continuous
 62
     7
370
    25
100
AcDbLine
 10
26.5863933242
 20
103.3096755577
 30
0.0
 11
26.5863933242
 21
78.3096755577
 31
0.0
  0
LINE
  5
152
330
1F
100
AcDbEntity
  8
0
  6
Continuous
 62
     7
370
    25
100
AcDbLine
 10
-68.9136066758
 20
197.3096755577
 30
0.0
 11
-99.9136066758
 21
197.3096755577
 31
0.0
  0
LINE
  5
153
330
1F
100
AcDbEntity
  8
0
  6
Continuous
 62
     7
370
    25
100
AcDbLine
 10
78.4123260526
 20
344.4036174345
 30
0.0
 11
195.4123260526
 21
344.4036174345
 31
0.0
  0
LINE
  5
154
330
1F
100
AcDbEntity
  8
0
  6
Continuous
 62
     7
370
    25
100
AcDbLine
 10
149.4123260526
 20
260.4036174345
 30
0.0
 11
149.4123260526
 21
344.4036174345
 31
0.0
  0
LINE
  5
155
330
1F
100
AcDbEntity
  8
0
  6
Continuous
 62
     7
370
    25
100
AcDbLine
 10
124.4123260526
 20
344.4036174345
 30
0.0
 11
124.4123260526
 21
260.4036174345
 31
0.0
  0
LINE
  5
156
330
1F
100
AcDbEntity
  8
0
  6
Continuous
 62
     7
370
    25
100
AcDbLine
 10
195.4123260526
 20
396.8594615572
 30
0.0
 11
78.4123260526
 21
396.8594615572
 31
0.0
  0
LINE
  5
157
330
1F
100
AcDbEntity
  8
0
  6
Continuous
 62
     7
370
    25
100
AcDbLine
 10
195.4123260526
 20
396.8594615572
 30
0.0
 11
195.4123260526
 21
344.4036174345
 31
0.0
  0
LINE
  5
158
330
1F
100
AcDbEntity
  8
0
  6
Continuous
 62
     7
370
    25
100
AcDbLine
 10
78.4123260526
 20
396.8594615572
 30
0.0
 11
78.4123260526
 21
344.4036174345
 31
0.0
  0
LINE
  5
159
330
1F
100
AcDbEntity
  8
0
  6
Continuous
 62
     7
370
    25
100
AcDbLine
 10
106.9123260526
 20
396.4834898425
 30
0.0
 11
166.9123260526
 21
396.4834898425
 31
0.0
  0
LINE
  5
15A
330
1F
100
AcDbEntity
  8
0
  6
Continuous
 62
     7
370
    25
100
AcDbLine
 10
106.9123260526
 20
346.3237450265
 30
0.0
 11
106.9123260526
 21
396.4834898425
 31
0.0
  0
LINE
  5
15B
330
1F
100
AcDbEntity
  8
0
  6
Continuous
 62
     7
370
    25
100
AcDbLine
 10
166.9123260526
 20
346.3237450265
 30
0.0
 11
106.9123260526
 21
346.3237450265
 31
0.0
  0
LINE
  5
15C
330
1F
100
AcDbEntity
  8
0
  6
Continuous
 62
     7
370
    25
100
AcDbLine
 10
166.9123260526
 20
396.4834898425
 30
0.0
 11
166.9123260526
 21
346.3237450265
 31
0.0
  0
SPLINE
  5
15D
330
1F
100
AcDbEntity
  8
0
  6
Continuous
 62
     7
370
    25
100
AcDbSpline
210
0.0
220
0.0
230
1.0
 70
    11
 71
     3
 72
   104
 73
   100
 74
     0
 42
0.00000001
 43
0.00000001
 40
0.0
 40
0.0
 40
0.0
 40
0.0
 40
0.0312500000000001
 40
0.0312500000000001
 40
0.0468750000000001
 40
0.0468750000000001
 40
0.0625000000000002
 40
0.0625000000000002
 40
0.0937500000000002
 40
0.0937500000000002
 40
0.1093750000000002
 40
0.1093750000000002
 40
0.1250000000000002
 40
0.1250000000000002
 40
0.1406250000000003
 40
0.1406250000000003
 40
0.1562500000000004
 40
0.1562500000000004
 40
0.1875000000000004
 40
0.1875000000000004
 40
0.2031250000000004
 40
0.2031250000000004
 40
0.2187500000000004
 40
0.2187500000000004
 40
0.2500000000000003
 40
0.2500000000000003
 40
0.2656250000000003
 40
0.2656250000000003
 40
0.2812500000000002
 40
0.2812500000000002
 40
0.2968750000000002
 40
0.2968750000000002
 40
0.3125000000000002
 40
0.3125000000000002
 40
0.3437500000000002
 40
0.3437500000000002
 40
0.3593750000000002
 40
0.3593750000000002
 40
0.3750000000000002
 40
0.3750000000000002
 40
0.4062500000000002
 40
0.4062500000000002
 40
0.4218750000000002
 40
0.4218750000000002
 40
0.4375000000000002
 40
0.4375000000000002
 40
0.4531250000000002
 40
0.4531250000000002
 40
0.4687500000000002
 40
0.4687500000000002
 40
0.5000000000000001
 40
0.5000000000000001
 40
0.5156250000000001
 40
0.5156250000000001
 40
0.5312500000000002
 40
0.5312500000000002
 40
0.5625000000000001
 40
0.5625000000000001
 40
0.5937500000000001
 40
0.5937500000000001
 40
0.6250000000000001
 40
0.6250000000000001
 40
0.6562500000000002
 40
0.6562500000000002
 40
0.6718750000000002
 40
0.6718750000000002
 40
0.6875000000000002
 40
0.6875000000000002
 40
0.7187500000000002
 40
0.7187500000000002
 40
0.7343750000000003
 40
0.7343750000000003
 40
0.7500000000000003
 40
0.7500000000000003
 40
0.7656250000000003
 40
0.7656250000000003
 40
0.7812500000000004
 40
0.7812500000000004
 40
0.8125000000000004
 40
0.8125000000000004
 40
0.8281250000000006
 40
0.8281250000000006
 40
0.8437500000000006
 40
0.8437500000000006
 40
0.8593750000000007
 40
0.8593750000000007
 40
0.8750000000000006
 40
0.8750000000000006
 40
0.9062500000000004
 40
0.9062500000000004
 40
0.9218750000000003
 40
0.9218750000000003
 40
0.9375000000000002
 40
0.9375000000000002
 40
0.9687500000000001
 40
0.9687500000000001
 40
0.9843750000000001
 40
0.9843750000000001
 40
1.0
 40
1.0
 40
1.0
 40
1.0
 10
136.9123260526385
 20
361.4036174344979
 30
0.0
 10
137.5850042301953
 20
361.4036174344979
 30
0.0
 10
138.2436853304387
 20
361.4707688654571
 30
0.0
 10
139.2123565650537
 20
361.6661455245266
 30
0.0
 10
139.532002401745
 20
361.7471757600203
 30
0.0
 10
140.1648508872588
 20
361.9415535905559
 30
0.0
 10
140.4751213454132
 20
362.0541345384163
 30
0.0
 10
141.3774535066139
 20
362.4321069870253
 30
0.0
 10
141.9462801010525
 20
362.7387559977343
 30
0.0
 10
142.7539698243383
 20
363.2807898901925
 30
0.0
 10
143.014752098583
 20
363.4749446781726
 30
0.0
 10
143.5116545961972
 20
363.8834899025148
 30
0.0
 10
143.7490624713018
 20
364.0987135924698
 30
0.0
 10
144.2025063429105
 20
364.5511830980826
 30
0.0
 10
144.4185414465155
 20
364.7884279010655
 30
0.0
 10
144.8291723554777
 20
365.2858117233191
 30
0.0
 10
145.0247143250303
 20
365.5474688218775
 30
0.0
 10
145.5686592040448
 20
366.3549367561026
 30
0.0
 10
145.8762281251219
 20
366.9234050711137
 30
0.0
 10
146.2551472811264
 20
367.8234425380662
 30
0.0
 10
146.3676048253756
 20
368.1313975294273
 30
0.0
 10
146.5634192225549
 20
368.7642765313733
 30
0.0
 10
146.6461917350459
 20
369.0881853229479
 30
0.0
 10
146.8437574986531
 20
370.0604356230945
 30
0.0
 10
146.9109281056557
 20
370.7172429930391
 30
0.0
 10
146.912992955852
 20
371.7157868005355
 30
0.0
 10
146.8967972523691
 20
372.0530443330583
 30
0.0
 10
146.8312654361251
 20
372.7174142001905
 30
0.0
 10
146.782178114669
 20
373.0452625408108
 30
0.0
 10
146.6524199506772
 20
373.6926236028684
 30
0.0
 10
146.5717467937058
 20
374.0121355673888
 30
0.0
 10
146.3788782692357
 20
374.642932953712
 30
0.0
 10
146.2659106835989
 20
374.955910416773
 30
0.0
 10
145.885167827612
 20
375.8669608005329
 30
0.0
 10
145.5768461748565
 20
376.4380476642986
 30
0.0
 10
145.0355573333299
 20
377.2446757916931
 30
0.0
 10
144.8409156424466
 20
377.5062801534502
 30
0.0
 10
144.429148975933
 20
378.0068286445635
 30
0.0
 10
144.2127995152943
 20
378.245103543924
 30
0.0
 10
143.5327662904218
 20
378.9256617653688
 30
0.0
 10
143.0384941831452
 20
379.3340635821482
 30
0.0
 10
142.2304525243665
 20
379.8784630877656
 30
0.0
 10
141.9518062298513
 20
380.0470102828215
 30
0.0
 10
141.3827698819837
 20
380.3545800841598
 30
0.0
 10
141.0913368553745
 20
380.4943174467228
 30
0.0
 10
140.4941643638613
 20
380.7457474011547
 30
0.0
 10
140.1884265705519
 20
380.8574424534314
 30
0.0
 10
139.5617099198373
 20
381.0518508073135
 30
0.0
 10
139.2386266935156
 20
381.1349648865525
 30
0.0
 10
138.2602160633303
 20
381.3346991548593
 30
0.0
 10
137.6028795714145
 20
381.401714416596
 30
0.0
 10
136.6092453857675
 20
381.4045095929906
 30
0.0
 10
136.2767560870888
 20
381.3890336502072
 30
0.0
 10
135.6091359792919
 20
381.3240096553122
 30
0.0
 10
135.2783982734217
 20
381.2747713826599
 30
0.0
 10
134.305339104382
 20
381.0804567984462
 30
0.0
 10
133.6774070516435
 20
380.8888459672276
 30
0.0
 10
132.4606621939262
 20
380.3823116686359
 30
0.0
 10
131.8892966718306
 20
380.0745494123382
 30
0.0
 10
130.8171728750668
 20
379.3575468575397
 30
0.0
 10
130.3118073303822
 20
378.9432747660929
 30
0.0
 10
129.4007280556586
 20
378.0360510461141
 30
0.0
 10
128.9915073578805
 20
377.5420855196242
 30
0.0
 10
128.4468753535283
 20
376.7366451175096
 30
0.0
 10
128.2761224912721
 20
376.4556150740387
 30
0.0
 10
127.9648484422465
 20
375.8812659819855
 30
0.0
 10
127.8239019614713
 20
375.587699386306
 30
0.0
 10
127.4445432643437
 20
374.6876798631205
 30
0.0
 10
127.2491117794455
 20
374.0621116209657
 30
0.0
 10
127.0484453939144
 20
373.0814683538974
 30
0.0
 10
126.9977329053623
 20
372.7494279589587
 30
0.0
 10
126.930273243735
 20
372.0884422033459
 30
0.0
 10
126.9131028154726
 20
371.7575595632035
 30
0.0
 10
126.9116006924115
 20
371.0950195627258
 30
0.0
 10
126.9272680040677
 20
370.7633622235763
 30
0.0
 10
126.9921467679045
 20
370.0992578494239
 30
0.0
 10
127.0417985581945
 20
369.7655702732548
 30
0.0
 10
127.2376684572798
 20
368.7876957046485
 30
0.0
 10
127.4305312289691
 20
368.1589119583263
 30
0.0
 10
127.8105055115485
 20
367.2485001661039
 30
0.0
 10
127.9530987564794
 20
366.9495199791597
 30
0.0
 10
128.2629313661714
 20
366.3742328356025
 30
0.0
 10
128.4306272472812
 20
366.0965267495619
 30
0.0
 10
128.7909628536951
 20
365.5599981832306
 30
0.0
 10
128.9836035238889
 20
365.3011777842006
 30
0.0
 10
129.3941035578939
 20
364.8020463227899
 30
0.0
 10
129.613135463743
 20
364.5606444663076
 30
0.0
 10
130.2988014491729
 20
363.8750623603175
 30
0.0
 10
130.7937963184729
 20
363.4677211221272
 30
0.0
 10
131.5952648823699
 20
362.9282074379984
 30
0.0
 10
131.8723328528865
 20
362.760388988088
 30
0.0
 10
132.447764297316
 20
362.4495894155957
 30
0.0
 10
132.7433313913507
 20
362.3082599156692
 30
0.0
 10
133.6441972965608
 20
361.9303121001205
 30
0.0
 10
134.2674219331765
 20
361.7370786128923
 30
0.0
 10
135.2395874631048
 20
361.5389675036198
 30
0.0
 10
135.5716479870675
 20
361.4882086537383
 30
0.0
 10
136.2397992811608
 20
361.4206090348864
 30
0.0
 10
136.5759869638602
 20
361.4036174344979
 30
0.0
 10
136.9123260526386
 20
361.4036174344979
 30
0.0
  0
LINE
  5
15E
330
1F
100
AcDbEntity
  8
0
  6
Continuous
 62
     7
370
    25
100
AcDbLine
 10
166.9123260526
 20
388.7241255102
 30
0.0
 11
106.9123260526
 21
388.7241255102
 31
0.0
  0
LINE
  5
15F
330
1F
100
AcDbEntity
  8
0
  6
Continuous
 62
     7
370
    25
100
AcDbLine
 10
106.9123260526
 20
354.0831093588
 30
0.0
 11
166.9123260526
 21
354.0831093588
 31
0.0
  0
LINE
  5
160
330
1F
100
AcDbEntity
  8
0
  6
Continuous
 62
     7
370
    25
100
AcDbLine
 10
195.4123260526
 20
411.8594615572
 30
0.0
 11
78.4123260526
 21
411.8594615572
 31
0.0
  0
LINE
  5
161
330
1F
100
AcDbEntity
  8
0
  6
Continuous
 62
     7
370
    25
100
AcDbLine
 10
78.4123260526
 20
411.8594615572
 30
0.0
 11
78.4123260526
 21
396.8594615572
 31
0.0
  0
LINE
  5
162
330
1F
100
AcDbEntity
  8
0
  6
Continuous
 62
     7
370
    25
100
AcDbLine
 10
195.4123260526
 20
411.8594615572
 30
0.0
 11
195.4123260526
 21
396.8594615572
 31
0.0
  0
LINE
  5
163
330
1F
100
AcDbEntity
  8
0
  6
Continuous
 62
     7
370
    25
100
AcDbLine
 10
149.4123260526
 20
260.4036174345
 30
0.0
 11
124.4123260526
 21
260.4036174345
 31
0.0
  0
INSERT
  5
16F
330
1F
100
AcDbEntity
  8
FORMAT
 62
     7
100
AcDbBlockReference
  2
SW_CENTERMARKSYMBOL_3
 10
136.9123260526
 20
371.4036174345
 30
0.0
  0
ENDSEC
  0
SECTION
  2
OBJECTS
  0
DICTIONARY
  5
C
330
0
100
AcDbDictionary
281
     1
  3
ACAD_GROUP
350
D
  3
ACAD_LAYOUT
350
1A
  3
ACAD_MLINESTYLE
350
17
  3
ACAD_PLOTSETTINGS
350
19
  3
ACAD_PLOTSTYLENAME
350
E
  3
ACAD_SCALELIST
350
47
  3
DWGPROPS
350
170
  0
DICTIONARY
  5
D
102
{ACAD_REACTORS
330
C
102
}
330
C
100
AcDbDictionary
281
     1
  0
DICTIONARY
  5
1A
102
{ACAD_REACTORS
330
C
102
}
330
C
100
AcDbDictionary
281
     1
  3
Layout1
350
1E
  3
Layout2
350
26
  3
Model
350
22
  0
DICTIONARY
  5
17
102
{ACAD_REACTORS
330
C
102
}
330
C
100
AcDbDictionary
281
     1
  3
Standard
350
18
  0
DICTIONARY
  5
19
102
{ACAD_REACTORS
330
C
102
}
330
C
100
AcDbDictionary
281
     1
  0
ACDBDICTIONARYWDFLT
  5
E
102
{ACAD_REACTORS
330
C
102
}
330
C
100
AcDbDictionary
281
     1
  3
Normal
350
F
100
AcDbDictionaryWithDefault
340
F
  0
DICTIONARY
  5
47
102
{ACAD_REACTORS
330
C
102
}
330
C
100
AcDbDictionary
281
     1
  3
A0
350
48
  3
A1
350
49
  3
A2
350
4A
  3
A3
350
4B
  3
A4
350
4C
  3
A5
350
4D
  3
A6
350
4E
  3
A7
350
4F
  3
A8
350
50
  3
A9
350
51
  3
B0
350
52
  3
B1
350
53
  3
B2
350
54
  3
B3
350
55
  3
B4
350
56
  3
B5
350
57
  3
B6
350
58
  3
B7
350
59
  3
B8
350
5A
  3
B9
350
5B
  3
C0
350
5C
  3
C1
350
5D
  3
C2
350
5E
  3
C3
350
5F
  3
C4
350
60
  3
C5
350
61
  3
C6
350
62
  3
C7
350
63
  3
C8
350
64
  3
C9
350
65
  3
D0
350
66
  3
D1
350
67
  3
D2
350
68
  0
XRECORD
  5
170
102
{ACAD_REACTORS
330
C
102
}
330
C
100
AcDbXrecord
280
     1
  1
DWGPROPS COOKIE
  2

  3

  4

  6

  7

  8
b.kav
  9

300
=
301
=
302
=
303
=
304
=
305
=
306
=
307
=
308
=
309
=
 40
0.0
 41
2459947.248816505
 42
2459947.248816759
  1

 90
        0
  0
LAYOUT
  5
1E
102
{ACAD_REACTORS
330
1A
102
}
330
1A
100
AcDbPlotSettings
  1

  2
none_device
  4

  6

 40
0.0
 41
0.0
 42
0.0
 43
0.0
 44
0.0
 45
0.0
 46
0.0
 47
0.0
 48
0.0
 49
0.0
140
0.0
141
0.0
142
1.0
143
1.0
 70
   688
 72
     1
 73
     0
 74
     5
  7

 75
    16
147
1.0
148
0.0
149
0.0
100
AcDbLayout
  1
Layout1
 70
     1
 71
     1
 10
0.0
 20
0.0
 11
420.0
 21
297.0
 12
0.0
 22
0.0
 32
0.0
 14
1.0000000000E+20
 24
1.0000000000E+20
 34
1.0000000000E+20
 15
-1.0000000000E+20
 25
-1.0000000000E+20
 35
-1.0000000000E+20
146
0.0
 13
0.0
 23
0.0
 33
0.0
 16
1.0
 26
0.0
 36
0.0
 17
0.0
 27
1.0
 37
0.0
 76
     0
330
1B
  0
LAYOUT
  5
26
102
{ACAD_REACTORS
330
1A
102
}
330
1A
100
AcDbPlotSettings
  1

  2
none_device
  4

  6

 40
0.0
 41
0.0
 42
0.0
 43
0.0
 44
0.0
 45
0.0
 46
0.0
 47
0.0
 48
0.0
 49
0.0
140
0.0
141
0.0
142
1.0
143
1.0
 70
   688
 72
     1
 73
     0
 74
     5
  7

 75
    16
147
1.0
148
0.0
149
0.0
100
AcDbLayout
  1
Layout2
 70
     1
 71
     2
 10
0.0
 20
0.0
 11
0.0
 21
0.0
 12
0.0
 22
0.0
 32
0.0
 14
0.0
 24
0.0
 34
0.0
 15
0.0
 25
0.0
 35
0.0
146
0.0
 13
0.0
 23
0.0
 33
0.0
 16
1.0
 26
0.0
 36
0.0
 17
0.0
 27
1.0
 37
0.0
 76
     0
330
23
  0
LAYOUT
  5
22
102
{ACAD_REACTORS
330
1A
102
}
330
1A
100
AcDbPlotSettings
  1

  2
none_device
  4
Letter_(8.50_x_11.00_Inches)
  6

 40
6.35
 41
6.35
 42
6.35000508
 43
6.35000508
 44
215.9
 45
279.4
 46
0.0
 47
0.0
 48
0.0
 49
0.0
140
0.0
141
0.0
142
1.0
143
1.0
 70
  1712
 72
     1
 73
     0
 74
     0
  7

 75
     0
147
1.0
148
0.0
149
0.0
100
AcDbLayout
  1
Model
 70
     1
 71
     0
 10
0.0
 20
0.0
 11
279.4
 21
215.9
 12
0.0
 22
0.0
 32
0.0
 14
0.0
 24
0.0
 34
0.0
 15
279.4
 25
215.9
 35
0.0
146
0.0
 13
0.0
 23
0.0
 33
0.0
 16
1.0
 26
0.0
 36
0.0
 17
0.0
 27
1.0
 37
0.0
 76
     0
330
1F
331
29
  0
MLINESTYLE
  5
18
102
{ACAD_REACTORS
330
17
102
}
330
17
100
AcDbMlineStyle
  2
Standard
 70
     0
  3

 62
   256
 51
90.0
 52
90.0
 71
     2
 49
0.5
 62
   256
  6
BYLAYER
 49
-0.5
 62
   256
  6
BYLAYER
  0
ACDBPLACEHOLDER
  5
F
102
{ACAD_REACTORS
330
E
102
}
330
E
  0
SCALE
  5
48
102
{ACAD_REACTORS
330
47
102
}
330
47
100
AcDbScale
 70
     0
300
1:1
140
1.0
141
1.0
290
     1
  0
SCALE
  5
49
102
{ACAD_REACTORS
330
47
102
}
330
47
100
AcDbScale
 70
     0
300
1:2
140
1.0
141
2.0
290
     0
  0
SCALE
  5
4A
102
{ACAD_REACTORS
330
47
102
}
330
47
100
AcDbScale
 70
     0
300
1:4
140
1.0
141
4.0
290
     0
  0
SCALE
  5
4B
102
{ACAD_REACTORS
330
47
102
}
330
47
100
AcDbScale
 70
     0
300
1:5
140
1.0
141
5.0
290
     0
  0
SCALE
  5
4C
102
{ACAD_REACTORS
330
47
102
}
330
47
100
AcDbScale
 70
     0
300
1:8
140
1.0
141
8.0
290
     0
  0
SCALE
  5
4D
102
{ACAD_REACTORS
330
47
102
}
330
47
100
AcDbScale
 70
     0
300
1:10
140
1.0
141
10.0
290
     0
  0
SCALE
  5
4E
102
{ACAD_REACTORS
330
47
102
}
330
47
100
AcDbScale
 70
     0
300
1:16
140
1.0
141
16.0
290
     0
  0
SCALE
  5
4F
102
{ACAD_REACTORS
330
47
102
}
330
47
100
AcDbScale
 70
     0
300
1:20
140
1.0
141
20.0
290
     0
  0
SCALE
  5
50
102
{ACAD_REACTORS
330
47
102
}
330
47
100
AcDbScale
 70
     0
300
1:30
140
1.0
141
30.0
290
     0
  0
SCALE
  5
51
102
{ACAD_REACTORS
330
47
102
}
330
47
100
AcDbScale
 70
     0
300
1:40
140
1.0
141
40.0
290
     0
  0
SCALE
  5
52
102
{ACAD_REACTORS
330
47
102
}
330
47
100
AcDbScale
 70
     0
300
1:50
140
1.0
141
50.0
290
     0
  0
SCALE
  5
53
102
{ACAD_REACTORS
330
47
102
}
330
47
100
AcDbScale
 70
     0
300
1:100
140
1.0
141
100.0
290
     0
  0
SCALE
  5
54
102
{ACAD_REACTORS
330
47
102
}
330
47
100
AcDbScale
 70
     0
300
2:1
140
2.0
141
1.0
290
     0
  0
SCALE
  5
55
102
{ACAD_REACTORS
330
47
102
}
330
47
100
AcDbScale
 70
     0
300
4:1
140
4.0
141
1.0
290
     0
  0
SCALE
  5
56
102
{ACAD_REACTORS
330
47
102
}
330
47
100
AcDbScale
 70
     0
300
8:1
140
8.0
141
1.0
290
     0
  0
SCALE
  5
57
102
{ACAD_REACTORS
330
47
102
}
330
47
100
AcDbScale
 70
     0
300
10:1
140
10.0
141
1.0
290
     0
  0
SCALE
  5
58
102
{ACAD_REACTORS
330
47
102
}
330
47
100
AcDbScale
 70
     0
300
100:1
140
100.0
141
1.0
290
     0
  0
SCALE
  5
59
102
{ACAD_REACTORS
330
47
102
}
330
47
100
AcDbScale
 70
     0
300
1/128" = 1'-0"
140
0.0078125
141
12.0
290
     0
  0
SCALE
  5
5A
102
{ACAD_REACTORS
330
47
102
}
330
47
100
AcDbScale
 70
     0
300
1/64" = 1'-0"
140
0.015625
141
12.0
290
     0
  0
SCALE
  5
5B
102
{ACAD_REACTORS
330
47
102
}
330
47
100
AcDbScale
 70
     0
300
1/32" = 1'-0"
140
0.03125
141
12.0
290
     0
  0
SCALE
  5
5C
102
{ACAD_REACTORS
330
47
102
}
330
47
100
AcDbScale
 70
     0
300
1/16" = 1'-0"
140
0.0625
141
12.0
290
     0
  0
SCALE
  5
5D
102
{ACAD_REACTORS
330
47
102
}
330
47
100
AcDbScale
 70
     0
300
3/32" = 1'-0"
140
0.09375
141
12.0
290
     0
  0
SCALE
  5
5E
102
{ACAD_REACTORS
330
47
102
}
330
47
100
AcDbScale
 70
     0
300
1/8" = 1'-0"
140
0.125
141
12.0
290
     0
  0
SCALE
  5
5F
102
{ACAD_REACTORS
330
47
102
}
330
47
100
AcDbScale
 70
     0
300
3/16" = 1'-0"
140
0.1875
141
12.0
290
     0
  0
SCALE
  5
60
102
{ACAD_REACTORS
330
47
102
}
330
47
100
AcDbScale
 70
     0
300
1/4" = 1'-0"
140
0.25
141
12.0
290
     0
  0
SCALE
  5
61
102
{ACAD_REACTORS
330
47
102
}
330
47
100
AcDbScale
 70
     0
300
3/8" = 1'-0"
140
0.375
141
12.0
290
     0
  0
SCALE
  5
62
102
{ACAD_REACTORS
330
47
102
}
330
47
100
AcDbScale
 70
     0
300
1/2" = 1'-0"
140
0.5
141
12.0
290
     0
  0
SCALE
  5
63
102
{ACAD_REACTORS
330
47
102
}
330
47
100
AcDbScale
 70
     0
300
3/4" = 1'-0"
140
0.75
141
12.0
290
     0
  0
SCALE
  5
64
102
{ACAD_REACTORS
330
47
102
}
330
47
100
AcDbScale
 70
     0
300
1" = 1'-0"
140
1.0
141
12.0
290
     0
  0
SCALE
  5
65
102
{ACAD_REACTORS
330
47
102
}
330
47
100
AcDbScale
 70
     0
300
1-1/2" = 1'-0"
140
1.5
141
12.0
290
     0
  0
SCALE
  5
66
102
{ACAD_REACTORS
330
47
102
}
330
47
100
AcDbScale
 70
     0
300
3" = 1'-0"
140
3.0
141
12.0
290
     0
  0
SCALE
  5
67
102
{ACAD_REACTORS
330
47
102
}
330
47
100
AcDbScale
 70
     0
300
6" = 1'-0"
140
6.0
141
12.0
290
     0
  0
SCALE
  5
68
102
{ACAD_REACTORS
330
47
102
}
330
47
100
AcDbScale
 70
     0
300
1'-0" = 1'-0"
140
12.0
141
12.0
290
     0
  0
ENDSEC
  0
EOF
